Song name
# A B C D E F G H I J K L M N O P Q R S T U V W X Y Z

Cheap Sex - Last Of The True tab

-------------------------------------------------------------------------------
			     LAST OF THE TRUE - Cheap Sex
-------------------------------------------------------------------------------

Main guitar riffs.

Intro
e|------------------------------------------------|
B|------------------------------------------------|
G|------------------------------------------------|
D|-7---3---7---3----------------------------------|
A|-7---3---7---3----------------------------------|
E|-5---1---5---1----------------------------------|

Verse
e|------------------------------------------------|
B|------------------------------------------------|
G|----------------------------------------5-7-----|
D|-77777777-3---77777777-3---55555555-3---5-7-----| x2
A|-77777777-3---77777777-3---55555555-1---7-9-----|
E|-55555555-1---55555555-1---33333333-1-----------|
     (pm)         (pm)         (pm)

Pre chorus
e|-------------------------------------------------|
B|-------------------------------------------------|
G|-------------------------------------------------|
D|-7-7-7-7-7/--------------------------------------|
A|-7-7-7-7-7/--------------------------------------|
E|-5-5-5-5 5/--------------------------------------|
     (pm)

Chorus
e|-------------------------------------------------|
B|-------------------------------------------------|
G|-------------------------------------------------|
D|-333-66/9---333-777---333-66/9--333-777----------| x2
A|-333-66/9---333-777---333-66/9--333-777----------|
E|-111-44/7---111-555---111-44/7--111-555----------|

Solo (In background)
e|-------------------------------------------------|
B|-------------------------------------------------|
G|-------------------------------------------------|
D|-7-10--------------------------------------------|
A|-7-10--------------------------------------------|
E|-5-8---------------------------------------------|

Ending
e|-------------------------------------------------|
B|-------------------------------------------------|
G|-------------------------------------------------|
D|-77777-77777-77777--7/10-5-7---------------------|
A|-77777-77777-77777--7/10-5-7---------------------|
E|-55555-55555-55555--5/8--3-5---------------------|
   (      pm       )


| /  slide up
| \  slide down
| h  hammer-on
| p  pull-off
| ~  vibrato
| +  harmonic
| x  Mute note
===============================================================================

plastic-surgery-disaster@hotmail.com
Tap to rate this tab
# A B C D E F G H I J K L M N O P Q R S T U V W X Y Z