Song name
# A B C D E F G H I J K L M N O P Q R S T U V W X Y Z

Cheap Sex - Consume And Consume tab

Cheap Sex - Consume and Consume
Album: Launch Off to War

The ordering and times you play the parts for this song is pretty straight forward
so I'll leave it up to you to figure it out. Oh yeah, I couldn't get the solo, sorry. 

Intro/Verse:
E|----------------------------------------------|
B|----------------------------------------------|
G|---77777777------------77777777-1111-999------|
D|---77777777-4444-5555--77777777-1111-999-7----|
A|---55555555-4444-5555--55555555-9-9-777-7----|
E|------------2222-3333--------------------5----|

Chorus
E|------------------------------------------------|
B|------------------------------------------------|
G|------------------7-66b------------------------|
D|----999999999999--7-6----999999999999--6-7------|
A|----999999999999--5-4----999999999999--6-7------|
E|----777777777777---------777777777777--4-5------|

End with:
E|--------------------------------|
B|--------------------------------|
G|------------------------7-------|
D|----666-7--666-7-666-7--7-------|
A|----666-7--666-7-666-7--5-------|
E|----444-5--444-5444-5----------|
Tap to rate this tab
# A B C D E F G H I J K L M N O P Q R S T U V W X Y Z