Guitaretab - guitar tabs
Song name
# A B C D E F G H I J K L M N O P Q R S T U V W X Y Z

Cheap Sex - Eyes See All tab

Cheap Sex - Eyes See All
Album: Launch Off to War

I'm leaving the order and timing up to you again...

Verse:
E|--------------------------------------|
B|--------------------------------------|
G|-------------7-9999-7-10101010--------|
D|--222222222--7-9999-7-10101010--------|
A|--222222222--5-7777-5-8-8-8-8---------|
E|--000000000---------------------------|
[ Tab from: http://www.guitaretab.com/c/cheap-sex/62249.html ]
Breakdown:
E|-----------------------------|
B|-----------------------------|
G|---~-------------------------|
D|------7----7----7----7-------|
A|------7----7----7----7-------|
E|------5----5----5----5-------|

Chorus:
E|---------------------------------------|
B|---------------------------------------|
G|---------999991010-777-1010-777-------|
D|-777777--99999-1010-777-1010-777-------|
A|-777777--77777-8-8--555-8-8--555-------|
E|-555555--------------------------------|
Related for Eyes See All tab