Song name
# A B C D E F G H I J K L M N O P Q R S T U V W X Y Z

Cheap Sex - Raped By The Fcc tab

----------------------------------------------------------------------------
			     Raped By The FCC - Cheap Sex
----------------------------------------------------------------------------
Tabbed by:JJ
Email:jonficere@msn.com

Tuning:EADGBe

~=Ring out


Intro
e|-------------------------------------------------------------------------|
B|-------------------------------------------------------------------------|
G|-------------------------------------------------------------------------|
D|-------------------------------------------------------------------------|
A|----------7----------------7-6~--------7---------8-8-8-8-7-7-7-7---------|
E|----5-7-8---8-7-5-7--5-7-8-------5-7-8---8-7-5-7-------------------------|

Verse
e|-------------------------------------------------------------------------|
B|-------------------------------------------------------------------------|
G|-----------5555-8888-----------------------------------------------------|
D|--77777777-5555-8888-----------------------------------------------------|
A|--77777777-3333-6666-----------------------------------------------------|
E|--55555555---------------------------------------------------------------|

e|-------------------------------------------------------------------------|
B|-------------------------------------------------------------------------|
G|-------------------------------------------------------------------------|
D|----7-7-7-7-7-7--3-3-3--2------------------------------------------------|
A|----7-7-7-7-7-7--3-3-3--2------------------------------------------------|
E|----5-5-5-5-5-5--1-1-1--0------------------------------------------------|

Chorus
e|-------------------------------------------------------------------------|
B|-------------------------------------------------------------------------|
G|-------------------------------------------------------------------------|
D|----77777777-3333-2222---------------------------------------------------|
A|----77777777-3333-2222---------------------------------------------------|
E|----55555555-1111-0000---------------------------------------------------|

"well I've been raped, ive been raped ive been raped by the fcc"
e|-------------------------------------------------------------------------|
B|-------------------------------------------------------------------------|
G|-------------------------------------------------------------------------|
D|---33333333-77777777-----------------------------------------------------|
A|---33333333-77777777-----------------------------------------------------|
E|---11111111-55555555-----------------------------------------------------|

Ending
e|-------------------------------------------------------------------------|
B|-------------------------------------------------------------------------|
G|---------------------2~--------------------------------------------------|
D|----3~-------2~------2~--------------------------------------------------|
A|----3~-------2~------0~--------------------------------------------------|
E|----1~-------0~----------------------------------------------------------|

============================================================================
Tap to rate this tab
# A B C D E F G H I J K L M N O P Q R S T U V W X Y Z