Song name
# A B C D E F G H I J K L M N O P Q R S T U V W X Y Z

Cheap Sex - Dead Today tab

Tabbed by:  Liam (isfuckingpunkasfuck) Kelly  :P

Email:factless_society@hotmail.com  add me if ya want but dont send complaints

sick ass song by an amazing band. Mike Virus is my hero!!

Tuning:standard


this is right. dont doubt it. this is right. im in a punk band so i know how to play 
dont fucking doubt it.


INTRO/PRE-CHORUS!!!

e|--------------------------------------------------------------------------|
B|--------------------------------------------------------------------------|
G|--------------------------------------------------------------------------|
D|-----55555555----77777777-------------------------------------------------|
A|-----55555555----77777777-------------------------------------------------|
E|-----33333333----55555555-------------------------------------------------|

VERSE!!!

e|--------------------------------------------------------------------------|
B|--------------------------------------------------------------------------|
G|--9999--6666--------------------------------------------------------------|
D|--9999--6666--7777--9999--5-7---------------------------------------------|
A|--7777--4444--7777--9999--5-7---------------------------------------------|
E|--------------5555--7777--3-5---------------------------------------------|


CHORUS/ENDING!!!!

e|---------------------------------------------------------------------------|
B|---------------------------------------------------------------------------|
G|---7777--5555--10101010----------------------------------------------------|
D|---7777--5555--10101010----------------------------------------------------|
A|---5555--3333--8-8-8-8-----------------------------------------------------|
E|---------------------------------------------------------------------------|


END ON....

e|--------------------------------------------------------------------------|
B|--------------------------------------------------------------------------|
G|----7777------------------------------------------------------------------|
D|----7777------------------------------------------------------------------|
A|----5555------------------------------------------------------------------|
E|--------------------------------------------------------------------------|

| /  slide up
| \  slide down
| h  hammer-on
| p  pull-off
| ~  vibrato
| +  harmonic
| x  Mute note
Tap to rate this tab
# A B C D E F G H I J K L M N O P Q R S T U V W X Y Z