Song name
# A B C D E F G H I J K L M N O P Q R S T U V W X Y Z

Cheap Sex - Worst Enemy tab

Help us improve GuitareTab! Take a short survey!
Cheap Sex
Written in Blood
Worst Enemy

Intro Guitars 1 & 2 :
---------------------------------------|
---------------------------------------|
---5-5-5-5-5-5-5-5-5-5--7--------------|
---5-5-5-5-5-5-5-5-5-5--7---2----------|
---3-3-3-3-3-3-3-3-3-3--5---2----------| x1
----------------------------0----------|
       pm............pm

Solo Guitar 1:
-------------------------------------------------|
-------------------------------------------------|
-----------7h9-9b-9b-7---------------------------|
-------7h9-------------9-9p7-9p7-9p7-9p7-5-4-0---|
---7h9-------------------------------------------| x1
-------------------------------------------------|

Guitar 2:
-------------------|
-------------------|
-------------------|
-------------------|
-------------------| x4
---0-0-3-3-2-2-0---|

Solo (continued) Guitar 1:
---12--12--15-12----------------------------------------------------------------|
---15b-15b-------15-12----------------------------------------------------------|
-----------------------14-12-14p12-14p12-14p12-14p12-14b-12-12-12-14b-12-12-12--|
--------------------------------------------------------------------------------|
--------------------------------------------------------------------------------|
--------------------------------------------------------------------------------|
x1

Guitar 2:
-------------------|
-------------------|
-------------------|
-------------------|
-------------------| x4
---0-0-3-3-2-2-0---|

Both Guitars:
-------------------|
-------------------|
-------------------|
-------------------|
-------------------| x4
---0-0-3-3-2-2-0---|

Intro Guitars 1 & 2:
---------------------------------------|
---------------------------------------|
---5-5-5-5-5-5-5-5-5-5--7--------------|
---5-5-5-5-5-5-5-5-5-5--7---2----------|
---3-3-3-3-3-3-3-3-3-3--5---2----------| x1
----------------------------0----------|
       pm............pm

Solo Guitar 1:
-------------------------------------------------|
-------------------------------------------------|
-----------7h9-9b-9b-7---------------------------|
-------7h9-------------9-9p7-9p7-9p7-9p7-5-4-0---|
---7h9-------------------------------------------| x1
-------------------------------------------------|

Guitar 2:
-------------------|
-------------------|
-------------------|
-------------------|
-------------------| x4
---0-0-3-3-2-2-0---|

Both Guitars:
---12--12----|
---15b-15b---|
-------------|
-------------|
-------------|
-------------|

Both Guitars:
--------------------------------------|
--------------------------------------|
--------------------------------------|
---2-2-2-2-2-2-2-2-2-2-2-2-2-2-2-2----|
---2-2-2-2-2-2-2-2-2-2-2-2-2-2-2-2----|
---0-0-0-0-0-0-0-0-0-0-0-0-0-0-0-0----|
   pm............................pm

Guitar 1:
-------------------|
-------------------|
---12-12-12-11-9---|
---X--X--X--X--X---|
---10-10-10-9--7---| X3
-------------------|

---------------------|
---------------------|
---7-7-7-7-9-9-9-9---|
---x-x-x-x-x-x-x-x---|
---5-5-5-5-7-7-7-7---| x1
---------------------|

--------------------|
--------------------|
---12-12-12-11-14---|
---X--X--X--X--X----|
---10-10-10-9--12---| X3
--------------------|

---------------------|
---------------------|
---7-7-7-7-9-9-9-9---|
---x-x-x-x-x-x-x-x---|
---5-5-5-5-7-7-7-7---| x1
---------------------|

Guitar 2:
--------------------------------------------------------------------|
--------------------------------------------------------------------|
----------------------------------5-5-5-5-5-5-5-5-7-7-7-7-5-5-4-4---|
--2-2-2-2-2-2-2-2-5-5-5-5-5-5-5-5-5-5-5-5-5-5-5-5-7-7-7-7-5-5-4-4---|
--2-2-2-2-2-2-2-2-5-5-5-5-5-5-5-5-3-3-3-3-3-3-3-3-5-5-5-5-3-3-2-2---| x2
--0-0-0-0-0-0-0-0-3-3-3-3-3-3-3-3-----------------------------------|
    pm..........pm  pm.........pm   pm..........pm

Verse Both Guitars:
--------------------------------------------------------------------|
--------------------------------------------------------------------|
----------------------------------5-5-5-5-5-5-5-5-7-7-7-7-5-5-4-4---|
--2-2-2-2-2-2-2-2-5-5-5-5-5-5-5-5-5-5-5-5-5-5-5-5-7-7-7-7-5-5-4-4---|
--2-2-2-2-2-2-2-2-5-5-5-5-5-5-5-5-3-3-3-3-3-3-3-3-5-5-5-5-3-3-2-2---| x2
--0-0-0-0-0-0-0-0-3-3-3-3-3-3-3-3-----------------------------------|
    pm..........pm  pm.........pm   pm..........pm

Bridge Both Guitars:
-----------------------------|
-----------------------------|
-----------------------------|
-----2-5---2-5----4-7--4-7---|
---3-----3------5-----5------| x2
-----------------------------|

Chorus:
-------------------------------------------------------|
-------------------------------------------------------|
---5-5-5-5-5-5-5-5-7-7-7-7-7-5-5-4-4-------------------|
---5-5-5-5-5-5-5-5-7-7-7-7-7-5-5-4-4-2-2-2-2-5-5-5-5---|
---3-3-3-3-3-3-3-3-5-5-5-5-5-3-3-2-2-2-2-2-2-5-5-5-5---| x2
-------------------------------------0-0-0-0-3-3-3-3---|
Related for Worst Enemy tab