Song name
# A B C D E F G H I J K L M N O P Q R S T U V W X Y Z

Cheap Suits - We Aim High tab

-----------------------------------------------------------------------------			     
We Aim High - CHEAP SUITS
-----------------------------------------------------------------------------
Tabbed by: Ian
Email: sullivan_fan@hotmail.com
Tuning: Standard

Cheap Suits Rock! This is one of the best off their album "Canadian Idles".
Don't forget to check out http://www.cheapsuits.ca

Intro/Verse
e|-------------------------------------------------------------------|
B|-------------------------------------------------------------------|
G|--8888888888-------------------------------------------------------|
D|--8888888888--8888888888--101010101010101010--8--6666666666--------| x4
A|--6666666666--8888888888--101010101010101010--8--6666666666--------|
E|--------------6666666666--8-8-8-8-8-8-8-8-8---6--4444444444--------|

Chorus
e|-------------------------------|
B|-------------------------------|
G|-------------------------------|
D|-------------------------------| x4
A|--6---------6---8--------------|
E|-----6---8-----------666---8---|

   Verse (only x2)
   Chorus

Bridge (1:25)
e|------------------------------------------------------------------------|
B|------------------------------------------------------------------------|
G|-8-8-8-8-8-8-8-8--13-13-13-13-13-13-13-13--8-8-8-8-8-8-8-8--------------|
D|-8-8-8-8-8-8-8-8--13-13-13-13-13-13-13-13--8-8-8-8-8-8-8-8--8-8-8-8-8-8-|x2
A|-6-6-6-6-6-6-6-6--11-11-11-11-11-11-11-11--6-6-6-6-6-6-6-6--8-8-8-8-8-8-|
E|------------------------------------------------------------6-6-6-6-6-6-|

e|------------------------|
B|------------------------|
G|-----8----------8-------|
D|--6--8--8----6--8--8----|
A|--6--6--8----6--6--8----|
E|--4-----6----4-----6----|

  Verse  (x2)
  Chorus (x8)

End On
e|--------------------------------------------------------------------------|
B|--------------------------------------------------------------------------|
G|--8~----------------------------------------------------------------------|
D|--8~----------------------------------------------------------------------|
A|--6~ ---------------------------------------------------------------------|
E|--------------------------------------------------------------------------|

| /  slide up
| \  slide down
| h  hammer-on
| p  pull-off
| ~  vibrato
| +  harmonic
| x  Mute note
=============================================================================
Tap to rate this tab
# A B C D E F G H I J K L M N O P Q R S T U V W X Y Z