Song name
# A B C D E F G H I J K L M N O P Q R S T U V W X Y Z

Cheap Suits - Did You Know tab

Cheap Suits- Did You Know?
couldnt find any tabs so i decided to tab it out so enjoy

Intro
e|---------------------|------------------|
b|---------------------|------------------|
g|---------------------|------------------|
d|-------------66-999-6|---------------9-7|
a|--66-999-6-77--------|--66-999-6-999----|
e|77-------------------|77----------------|

Verse/Chorus
e|-7-7-7-9-|
b|-7-9-7-11|
g|-8-9-8-11|
d|-9-9-9-11|
a|-9-7-9-9-|
e|-7---7---|

thats the whole song, just to lazy to put up the order, you can figure it out yourself, its simple.
Tap to rate this tab
# A B C D E F G H I J K L M N O P Q R S T U V W X Y Z