Song name
# A B C D E F G H I J K L M N O P Q R S T U V W X Y Z

Cheap Trick - Reach Out tab

i found i couldn't find a tab of this song anywhere so here is a very rough ver of it i
off of a video i found on youtube (http://youtube.com/watch?v=5BBm1SuB1B4. I Figured out
he was doing for the intro by playing on my midi keyboard then converting it to guitar. 
someone can make a more accurate one soon!

-------------------------------------------------------------------------------
			     Reach Out - Cheap Trick
-------------------------------------------------------------------------------
Tabbed by:J
Email:drjeremiahgammeter@gmail.com

Tuning:

E  :----------------|----------------|----------------|----------------|
B  :----------------|----------------|----------------|----------------|
G  :----7*--9*----7*|--9*----7*--9*--|--7*--9*----7*--|9*----7*--9*----|
D  :7-7---7---7-7---|7---7-7---7---7-|7---7---7-7---7-|--7-7---7---7-7-|
A  :----------------|----------------|----------------|----------------|
E  :----------------|----------------|----------------|----------------|

E  :----------------|-----------------|-----------------|----------------|
B  :----------------|-----------------|-----------------|----------------|
G  :7*--9*----7*--9*|9-9-9-9-9-9-9-9-9|/-6-----7--------|----7*--9*----7*|
D  :--7---7-7---7---|9-9-9-9-9-9-9-9-9|/-6-----7--------|7-7---7---7-7---|
A  :----------------|7-7-7-7-7-7-7-7-7|/-4-----5--------|----------------|
E  :----------------|-----------------|-----------------|----------------|
                     Strumming is Palm Muted
E  :----------------|----------------|----------------|
B  :----------------|-------5--------|----------------|
G  :--9*----7*--9*--|----------------|----------------|
D  :7---7-7---7---7-|2--4-4-4-4---2--|---4------------|
A  :----------------|2--4-4-4-4---2--|3--4------------|
E  :----------------|---2-2-2-2------|2--2------------|
                    Chorus
Tap to rate this tab
# A B C D E F G H I J K L M N O P Q R S T U V W X Y Z