Song name
# A B C D E F G H I J K L M N O P Q R S T U V W X Y Z

Cheap Trick - Out In The Street tab


intro
e|---------------------------|
B|---------------------------|
G|--------------------5------|
D|-----------------5--5--5---| 
A|--------0-1-2----5--3--5---|
E|--0-1-2----------3-----3---|

e|---------------------------|
B|---------------------------|
G|--------------------5------|
D|-----------------5--5--5---| 
A|--------0-1-2----5--3--5---|
E|--0-1-2----------3-----3---|
verse                                            "hanging out"
e|---------------------------|
B|---------------------------|
G|-------------------5-------|
D|----------------5--5--5----|
A|-------0-1-2----5--3--5----|
E|-0-1-2----------3-----3----|
                                                 "down the streets"
e|----------------------------|
B|----------------------------|
G|---------------------5------|
D|------------------5--5--5---|
A|------------------5--3--5---|
E|-0-1-2-3-2-1-0----3-----3---|
pm|. . . . . . .                                 "the same old things"
e|----------------------------|
B|----------------------------|
G|---------------------5------|
D|------------------5--5--5---|
A|------------------5--3--5---|
E|-0-1-2-3-2-1-0----3-----3---|
pm|. . . . . . .                                 "we did last week"
e|----------------------------|
B|----------------------------|
G|---------------------5------|
D|------------------5--5--5---|
A|------------------5--3--5---|
E|-0-1-2-3-2-1-0----3-----3---|
pm|. . . . . . .
chorus "and not a thing to do"
e|-------------------------------|
B|-------------------------------|
G|-------------------------------|
D|-5-5-5-5--4-4-4-4--2-2-2-2-----|
A|-5-5-5-5--4-4-4-4--2-2-2-2-----|
E|-3-3-3-3--2-2-2-2--0-0-0-0-----|
            "but talk to you"
e|-------------------------------|
B|-------------------------------|
G|-------------------------------|
D|-5-5-5-5--4-4-4-4--2-2-2-2-----|
A|-5-5-5-5--4-4-4-4--2-2-2-2-----|
E|-3-3-3-3--2-2-2-2--0-0-0-0-----|
       "were all alright"
e|---------------------------|
B|---------------------------|
G|-------------------5-------|
D|----------------5--5--5----| 
A|--------0-1-2---5--3--5----|
E|--0-1-2---------3-----3----|

               "were all alright"
e|---------------------------|
B|---------------------------|
G|---------------------5-----|
D|------------------5--5--5~-| 
A|--------0-1-2-----5--3--5~-|
E|--0-1-2-----------3-----3~-|
          "hello wisconsin!"


              ~=hold
Tap to rate this tab
# A B C D E F G H I J K L M N O P Q R S T U V W X Y Z