Song name
# A B C D E F G H I J K L M N O P Q R S T U V W X Y Z

Cheap Trick - The Ballad Of Tv Violence tab

Main Riff

------------------|
--------------5---|
--------------5---|             X4
---7--7--7--7-5---|
---0--0--0--0-----|
------------------|

Riff 1

--------------------------|
--------------5---5---7---|
--------------5---5---7---|     X2
---7--7--7--7-5-7-5-7-7---|
---0--0--0--0---0---0-----|
--------------------------|

Verse

--------------------------------------------------------------------|
--------------------------------------------------------------------|
----------7b8-7-5---5-----7b8-7-5---5-7---7b8-7-5---5------5b6------|
---5-6-7----------7---7-----------7---------------7---7--------7----|
---5-6-7-------------------------------------------------------7----|
--------------------------------------------------------------------|
Tap to rate this tab
# A B C D E F G H I J K L M N O P Q R S T U V W X Y Z