Song name
# A B C D E F G H I J K L M N O P Q R S T U V W X Y Z

Cheap Trick - That 70s Song In The Street tab

Artist: Cheap Trick
Album: Authorized Greatest Hits
Song: That 70's Song (Based on "In The Street")
Description: Theme song to the show 'That 70's Show'. Based on Alex Chilton's 'In The Street'.

Main Riff
e|----------------------------|
B|----------------------------|
G|--------------------5-------|
D|-----------------5--5--5----| 
A|--------0-1-2----5--5--5----|
E|--0-1-2----------3-----3----|

Verse                
e|----------------------------|
B|----------------------------|
G|--------------------5-------|
D|-----------------5--5--5----|
A|-----------------5--5--5----|
E|-0-1-2-3-2-1-0---3-----3----|

Chorus
e|----------------------------|
B|----------------------------|
G|----------------------------|
D|-5-5-5-5--4-4-4-4--2-2-2-2--|
A|-5-5-5-5--4-4-4-4--2-2-2-2--|
E|-3-3-3-3--2-2-2-2--0-0-0-0--|
            
e|----------------------------|
B|----------------------------|
G|----------------------------|
D|-5-5-5-5--4-4-4-4--2-2-2-2--|
A|-5-5-5-5--4-4-4-4--2-2-2-2--|
E|-3-3-3-3--2-2-2-2--0-0-0-0--|
       
Tap to rate this tab
 
# A B C D E F G H I J K L M N O P Q R S T U V W X Y Z