Song name
# A B C D E F G H I J K L M N O P Q R S T U V W X Y Z

Cheap Trick - Oh Caroline tab

Oh Caroline
Cheap Trick
Written by Rick Nielsen
Album: In Color (1977)
Tabbed by: Dana P. (danap@exchangenet.net)


Intro: 
  Dm / Am / Gm    
  Dm / Am / Gm 
  Gm / Am / Dm    
  Am / Gm / Dm

Intro Solo:
e--------------------------------------10---------------------------------------10---
B------------------------------------------------------------------------------------
G--12b(14)r12--10------12b(14)r12--10--------12b(14)r12--10------12b(14)r12--10------
D-----------------12----------------------------------------12-----------------------
A------------------------------------------------------------------------------------
E------------------------------------------------------------------------------------

e--9/10--13--9--10----9b(10)--5h7p5---------------------------
B-------------------------------------------------------------
G------------------------------------5b(7)r5--5---------------
D-----------------------------------------------7--7-5-0-0----
A-------------------------------------------------------------
E-------------------------------------------------------------


Verse 1:
Gm              Dm
Oh Caroline, my life shined when you walked in
Gm               Dm 
Oh Caroline, my world shined when you came in


Pre-Chorus:
         Am
And if I go all over the world
           Gm                      Dm
I wouldn't find another lover like you
         Am                        Gm
And if I knew a million girls, Caroline


Chorus:
Am                                   Gm
Go to the end of the world for your love
Am                                  (Dm   Am   Gm) x 2
Go to the end of the world for your love


Verse 2:
Gm               Dm
Oh Caroline, my heart climbed when you came in
Gm                 Dm
Oh Caroline, life means more since you came in


Pre-Chorus:
         Am
And if I go all over the world
                                   Gm                  
I wouldn't find another lover like you
         Am                        Gm
And if I knew a million girls, Caroline



Chorus:
Am                                   Gm              
Go to the end of the world for your love
Am                                   Dm            
Go to the end of the world for your love
Am                                   Gm         
Go to the end of the world for your love, love, love oh Caroline
Am                                   Dm
Go to the end of the world for your love


Bridge:
Dm
Can you feel my heart strings they're on fire 
You threw it all away

e------------------------------
B------------------------------
G-1-0----1-0----1-0------------
D-----3------3------3----0-----
A------------------------------
E------------------------------

Chorus:
Am                                          Gm
Go to the end of the world oh Caroline, oh Caroline
Am                                                     Gm
Go to the end of the world, love, love, love, love oh Caroline
Am                           Gm
Go to the end of the world, love
Am                                   Dm     Am    Gm
Go to the end of the world for your love

Dm   Am   Gm
Love

Gm / Am / Dm     

Am / Gm / Dm
Tap to rate this tab
# A B C D E F G H I J K L M N O P Q R S T U V W X Y Z