Song name
# A B C D E F G H I J K L M N O P Q R S T U V W X Y Z

Cheap Trick - At Budakan Album tab

#
Date: Wed, 10 Jan 1996 14:45:58 -0500 (EST)
From: Glen Norman Pavan 
Subject: cheap_trick: at_budakan_album.tab


artist:  Cheap Trick
title:  Hello There
        Come On Come On
        Lookout
        Big Eyes
        Need Your Love
        Ain't That A Shame
        I Want You To Want Me
        Surrender
        Goodnight Now
        Clock Strikes Ten
album:  At Budakan
tuning:  standard

This is a compilation of my submissions and 
Surrender-  Steve Portigal (sportiga@uoguelph.ca)
I Want You To Want Me- Joop Vanderheiden 

Hello There/Goodnight Now
-------------------------

 
intro:
 
E:  4/5-5-5-5-5-5-5-5 5-5-5-5-5-5-5-5       (repeat as necessary)
 
verse:
 
E:  4/5-5-5-5-5-5-5-5 5-5-5-5-5-5-5-5     (play twice)
    
    Hello there ladies and gentlemen
    Hello there ladies and gents are you
 
A:  5-5-4------------      
E:  ------5-(5)-5-5-5      (play twice) 
 
    Ready to rock are you 
    ready or not
 
(this completes the verse)
play the whole verse again
 
Bridge:
    
just play the open E continually
 
Would you like to do a number with me?
Would you like to do a number with me? 
Would you like to?  Would you like to?
Would you like to do a number with me?
 
Outro:
 
D-A-E  twice
 
(this is the part when Robin sings the "ooh")
 
  
Alternate lyrics for "Goodnight Now"
 basically the same, but the verse is
 Goodnight Now ladies and gentlemen
 Goodnight Now ladies and gents it's the
 End of the show Now it's 
 Time to go


Come On Come On
--------------- 

intro:  E
 
first verse
A---------2---0--------2-3-4------------------------2-----------------------
E----0---------------------------------2------------------------------------
   oh  baby feeling so good don't you ruin it tonight tonight
   it's been so long since I don't know when treat me treat me treat me right
 
prechorus
A---4-----------------------------2-------------
E-----------------2-----------------------------
    Don't ever lose me cause you're the one
    Show me you're really mine you're mine
 
chorus  
(E) come on come on well I know you can do it
(E) come on come on well there ain't nothing to it
(E) yeah yeah yeah yeah well I know you believe me
(E) yeah yeah yeah yeah you can see the real me
 
second verse
Oh baby come right here
You were so lonely but now you're here
It's been so long since I don't know when
Oh come on come on do it again
 
prechorus
 
chorus
 
tacit
 
third verse:  repeat first verse
 
prechorus

chorus repeat to fade


Lookout
-------

intro
 
G--------------------------------------------------------------------
D---------------------------------------------------------------------
A--2-3-4-5-2-3-4-5-5-5-5-5-5-5-5-5-5-5-5-5-5-5-5-5-5-5-5-5-5-5-5-5-5-5
E---------------------------------------------------------------------
 
first verse
 
There is (D)somewhere someplace in this world I want to take you, 
look (A)out look (C)out look (G)out 
I am (D)one boy one boy in a thousand that want to make you 
look (A)out liitle(C)girl little(G)girl little(Bb)girl look (F)out
(Bb)Ahh (F)
 
second verse
 
If you're hiding and I'm hiding from some bum that wants to get you
Look out look out look out
If you're lonely and I'm lonely and I'm near you I can hear you 
Look out little girl little girl little girl look out
 
bridge
 
(C)sea over yonder when the rights are read your (B)name
(G)you search for the riddle to the clue to the river she came (E)
(C)look out on the land to the south to the east three (B)said
(A)Cancel Colorade in the march by re(B)quest
(A)Don't go on the lookout of a whim she (B)said
 
guitar solo in D
 
first verse
 
outro F


Big Eyes
--------
 
guitar intro
 
 
G-------------------------4------3-7--------------------------4-----3-7--
D---------------1-5---2-5------4--------------------1-5---2-5-----4------
A----1-5------2----------------------------1-5----2----------------------
E--2-------------------------------------2------------------------------
 
 
bass intro 
 
G-------------------------------------------------------------------
D-------------------------------------------------------------------
A--------------------------------------------------------------5-6-7
E-------------------------------------------------------------------
 
 
(guitar and bass together hereafter, except where indicated)
 
chorus
 
A----------------------1-2-1-0----------------------------1-2-1-0----
E--0-0-0-0-0-0-0-0-0-0---------3-0----0-0-0-0-0-0-0-0-0-0---------3-0
 
 
verse
 
     (G) It's not the way you look ??????
     (G) It's not the way you walk
     (C) Your eyes are something good
     (C) You know they're clear and bright
     (G) It's not the color of your hair
 
chorus
 
intro  (both guitar and bass) twice
 
 
outro
 
A----------------------1-2-1-0--------------------------1-2-1-0-----1-2-1----
E--0-0-0-0-0-0-0-0-0-0---------3-0--0-0-0-0-0-0-0-0-0-0---------3-0-------3-0
   Big eyes,           I K F i F T  Big Eyes            T K C i M name
 
A----------------------1-2-1-0-----1-2-1-0-----1-2-1-0-------------------
E--0-0-0-0-0-0-0-0-0-0---------3-0---------3-0---------3-0-0________(hold)
 
 
a cappella
     Big Eyes
 
 
A--1-2-1-0-----1-2-1-0-----
E----------3-0---------3-0-
 

Need Your Love
--------------
 
intro
 
G----|------|-------|-----7-|-----7-9|--9-|-----------9-|-----7-|---7-9---
D----|------|-------|---9---|-9-9----|--9-|-----------9-|---9---|-9-------
A---7|-7-7-5|--5-5-7|-7-----|--------|--7-|-0-2-4-2-0-7-|-7-----|---------
E----|------|-------|-------|--------|--0-|-----------0-|-------|---------
 
(E)  (E)  (E)  (E)
(E)  (B)  (A)  (D)
 
verse 1
 
(E)Need your love need your love (B)need your love need your love(A)  (D)
(E)Fell apart broke my heart (B)need your love need your love(A) (D)
If I could (E)go around the world I wouldn'd (B)find another girl need 
your 
love (A) (D)
(E)Need your love need your love (B)need your love need your love (A) (D)
 
verse 2
 
G-------------------------------------------------------------------------
D-------------------------------------------------------------------------
A-------------------------------------------------------------------------
E-----5--------5--------5--------5--------5--------5--------5-------------
 You made me lonely why should you care I give you everything that's only
 
G-------------------------------------------------------------------------
D--------------------------------------------------------------------------
A-------------------------------------------------------------------------
E---5-0-3-0-7---7\\\\\\\\\5-------5----------3-5-----5------5--------------
    fair   I give you lovin It's what you need   I give you everything   
 
G---------------------------------------------------------------------------
D---------------------------------------------------------------------------
A---------------------------------------------------------------------------
E-------5--------5-0-3-0-7----7--------------8------------------------------
  everything in me       If I surprise you that's not the reason
 
 
verse 1
 
verse 2
 
bridge
 
(A)  (G)   (A)  (G)  (A)  (G)  (A)  (G)
(D)  (C)   (D)  (C)  (E)  (D)  (E)  (D)
(A)  (G)  (F#)  (F)

verse 1
 
interlude
 
(E)need your love   need your love
 
guitar solo
 
G---------------------------------------
D---------------------------------------      repeat this as necessary
A---------------------------------------      it will change to an open E
E--0-0-0-0-0-0-0-0----0-0-0-0-0-3-2-0---      after the fast solo section
 
outro
 
(E)  (B) (A)  (G)  (E)  (B)  (A)  (G)
 
G---------------------------------------------------------------7--------
D---------------------------------------------------------------7--------
A--------------2-------4-------5--------7-------2-------4-------5--------
E-0-0----0-0-0---0-0-0---0-0-0----0-0-0---0-0-0---0-0-0---0-0-0----------
 
G----------------------------------9-9-9-9-9-9-9-9-9-9-9-9-9-9-9-9-9-9---
D----------------------------------9-9-9-9-9-9-9-9-9-9-9-9-9-9-9-9-9-9---
A----------------------------------7-7-7-7-7-7-7-7-7-7-7-7-7-7-7-7-7-7---
E----------------------------------0-0-0-0-0-0-0-0-0-0-0-0-0-0-0-0-0-0---
    Need... your.... ......love
 

Ain't That A Shame
------------------
intro:   B consistently with F# at the end of every bar
 
verse
E----------0-0-------0-0-------------0-0--------0------2---3----
  you made    me cry    when you said   goodbye ain't that a shame
 
 
D---------5------------5-------------------------------------------
A-----4-7----7-----4-7---7------------------------4-------------4--
E---5------------5-------------------------0--4-7---7----0--4-7---7
                   my tears fell like rain                    ain't that 
 
D----------4-------------4---------------------------6-------------6---
A------4-7---7-------4-7---7---------------------6-9---9-------6-9-----
E----5-------------5---------------------------7-------------7---------
    shame            you're the one to blame
 
 
second verse
You broke my heart now we're apart
ain't that a shame my tears fell like rain
ain't that a shame
you're the one to balme
 
third verse:  guitar solo
 
fourth verse:  
so long good bye although I'll cry
ain't that a shame
My tears fell like rain
ain't that a shame
you're the one to blame
 
fifth verse:  slide guitar solo
 
sixth verse:  repeat first verse
 
outro:  E E   between every embellishing part
 

I Want You To Want Me
---------------------
Intro:      I want you to want me
 
   A                  A/G#
I want you to want me
   F#m                A/E
I need you to need me
     D                  A/C#
I'd love you to love me
     A
I'm beggin' you to beg me.
 
   F#m                A/E
I want you to want me
   D                  A/C#
I need you to need me
     A                  A/G#
I'd love you to love me
 
       F#m7                  B7
I'll shine up my old brown shoes
      G                   A   A/G#
I'll put on a brand new shirt
      F#m7                    B7
I'll get home early from work
        G               F#m     F#m
if you say that you love me
 
 A                                E
Didn't, didn't, didn't I see you cryin' (cryin' cryin')
    F#m                              D7
Oh didn't, didn't, didn't I see you cryin' (cryin' cryin')
 A                                                         E
Feelin' all alone without a friend you know you feel like dyin' (dyin',dyin')
    F#m                               D7
Oh didn't, didn't, didn't I see you cryin' (cryin' cryin')
 
   A                  A/G#
I want you to want me
   F#m                A/E
I need you to need me
     D                  A/C#
I'd love you to love me
     A
I'm beggin' you to beg me.
 
       F#m7                  B7
I'll shine up my old brown shoes
      G                   A   A/G#
I'll put on a brand new shirt
      F#m7                    B7
I'll get home early from work
        G               F#m     F#m
if you say that you love me
 
 A                                E
Didn't, didn't, didn't I see you cryin' (cryin' cryin')
    F#m                              D7
Oh didn't, didn't, didn't I see you cryin' (cryin' cryin')
 
 A                                                         E
Feelin' all alone without a friend you know you feel like dyin' (dyin',dyin')
    F#m                               D7
Oh didn't, didn't, didn't I see you cryin' (cryin' cryin')
 
Solo: A / A / E / E / F#m / F#m /D7
 
 A                                                         E
Feelin' all alone without a friend you know you feel like dyin' (dyin',dyin')
    F#m                               D7
Oh didn't, didn't, didn't I see you cryin' (cryin' cryin')
 
Solo: A / A / E / E / F#m / F#m /D7
 
   A                  A/G#
I want you to want me
   F#m                 A/E
I need you to need me
     D                  A/C#
I'd love you to love me
     A
I'm beggin' you to beg me.
 
I want you to want me
I want you to want me
I want you to want me


Surrender
---------
{define: G7sus 0 3 1 0 0 - -}
{define: Ab/Bb 0 - 1 1 1 1 -}
{define: A/B   0 - 2 2 2 2 -}
 
[Ab/Bb]        [Bb]        [Ab/Bb]        [Bb]
 
[B]Mother told me,  [F#]yes she told me, [E]I'd meet girls like you.  
[B]  She
[B]also told me, stay [F#]away, you'll ne[E]ver know what you'll catch.[B]
[E]Just the other day [F#]I heard of a sol[B]dier's falling off___     
Some In-
[E]doneasian junk [F#]that's going 'round [B]        [B]
 
[B]Mommy's all right [G#m7]daddy'd all right, they [F#sus]just seem a 
little wie
rd.
[E]     Surren[B]der,   Surren[G#m7]der, but don't [F#sus]give yourself away,
[E]        [E]way,______        way.______________
[A/B]        [A/B]        [B]        [B]
[A/B]        [A/B]        [B]        [B]
 
[B]Father says "Your [F#]mother's right, she's [E]really up on things."  [B]
[B]Before we married mom[F#]my served in the WACs [E]in the Philippines. 
[B]  No
w
[E]I had heard the WACs [F#]recruited old [B]maids for the war.   But mom
[E]my isn't one of [F#]those,  I've known [B]her all these years.  [B]
 
[B]Mommy's all right [G#m7]daddy'd all right, they [F#sus]just seem a 
little wie
rd.
[E]     Surren[B]der,   Surren[G#m7]der, but don't [F#sus]give yourself away,
[E]        [E]way,______        way.______________
[A/B]        [A/B]        [B]        [B]
[A/B]        [A/B]        [B]        [B]
 
[C]Whatever happened to all [G]this season's [F]losers of the year? [C]
[C]Every time I got [G]to thinking Where'd [F]they disappear.  [C]
[F]Then I woke up, [Gsus]mom and dad are roll[C]ing on the couch.
[F]Rolling numbers, rock [Gsus]and rolling, [C]got my Kiss records out.  [C]
 
[C]Mommy's all right [Am7]daddy'd all right, they [G7sus]just seem a 
little wier
d.
[F]     Surren[C]der,    Surren[Am7]der, but don't [Gsus]give yourself away,
[F]     [F]way,______     [G]way.______________  Away.
[C]        [F]        [C]        [G]    Away.
[C]        [F]        [C]        [G]    Surren
 
{c:Repeat 3x}
[C]der, surren[Am7]der, but don't [Gsus]give yourself away.
[F]    Surren[C]der, surren[Am7]der, but don't [Gsus]give yourself away.
 
{c:Ending}
[D]        [C]        [D]
[G]        [F]        [C]
 

Clock Strikes Ten
-----------------
intro:    
 
G-------16--12---14---------------14-----16----12
D--------------------12-------12-----------------
 
descending riff:
G--2-1-0---------------------------
D--------4-3-2-1-0-----------------
A------------------4-3-2-1-0-------
E----------------------------4-3-2-
 
intro twice
descending riff
 
verse
(E) Clock strikes ten it's a Saturday Night
    money in my pocket and it feels alright
(G) Not staying home gonna stay out late
(A) Gonna hear some rockin music it feels just great
A--3-2-1-0----------
E-----------4-3-2-1-
 
 
(E) Clock strikes twelve on a Saturday Night
(G) All the creeps are sleeping all the cools in sight
(B) All the kings and queens are out tonight 
(D) Are looking for some action til it feels alright
 
chorus
(D) Imagine what we're doing tonight (A)
(D) you really got me going tonight  (A)
(D) imagine what we're doing tonight (A)
(D) I'm crazy for some action tonight (A)
 
descending riff
 
second verse
Clock strikes two I'll be out all night
all my money's spent but that's alright
Not going home gonna stay out late
Get ready for some action want some action tonight
Clock strikes four I want some more
Everybody's layin on the floor 
Not going home gonna stay out late 
gonna get rockin before its too late
 
chorus
 
descending riff
 
intro twice (bass E)

cool thing rick does live:

E------------------------------------------------------------------15-
B---------------------------------------------------------------15----
G---16--12--14-----------14--16--12---16-12-14-----------14--12--------
D--------------12-----12-----------------------12-----12--------------
A---------------------------------------------------------------------
E----------------------------------------------------------------------
 
descending riff
 
third verse
Gonna get down gonna get on down
gonna get down gonna get on down
gonna get down gonan get on down
gonna get down gonna get down
gonna get down gonna get on down
get down gonna get on down
get down gonna 
get down gonna
get down na na na na na na na na na
 
chorus
 
outro:  chorus repeats, key change from D A to E B to F C
 

comments and corrections to senomar@bach.udel.edu
                     -I'm here, I'm queer, I play 5-string bass
                        (with my hamer 12-string on order)
Tap to rate this tab
# A B C D E F G H I J K L M N O P Q R S T U V W X Y Z