Song name
# A B C D E F G H I J K L M N O P Q R S T U V W X Y Z

Cheap Trick - Auf Wiedersehen tab

Help us improve GuitareTab! Take a short survey!
From: Glen Norman Pavan 

please archive under both Anthrax and Cheap Trick

artist:  Cheap Trick/Anthrax
title:  Auf Wiedersehen
album:  Cheap Trick- Heaven Tonight     Anthrax- Only single
key:  A
tuning:  standard  E A D G


probably my most favorite Cheap Trick songs, I broke my A string playing
the jamming chorus once


intro

G --9--------------------------------------------------------------
D---9---8-8-8-8-8-8-8-8-8-9-9-9-9-9-9-9-9-9-10-10-10-10-10-10-10-10-
A---7---------------------------------------------------------------
E---0---------------------------------------------------------------


G------------------------------------------------------------------
D--11-11-11-11-11-11-11-11-11-12-12-12-12-12-12-12-12-12-----------
A-----------------------------------------------------------------
E------------------------------------------------------------------


E--0-0-0-0-0-0-0-0-0-0-0-0-0-0-0-0-0-0-0-0-0-


first verse

(E)Au revoir Auf Wiedersehen   you won't see another morning you won't see 
   another evening good night (A)  (G)  
(E)Buenas noches senor Senorita see you later buenas noches bye bye (A)(G)

prechorus

There are (F#)many here among (B)us who (D)feel their lives are a (A)joke
And for (F#)you we sing this (B)final song for you(D) there is no hope
no hope

E--0-2-3-5-2-3-5-3-2-3-2-0--0-2-3-5-2-3-5-3-2-3-2-0-0-0-0-0-0-0-0-0-0-0-

second verse

Sayonara  suicide Hari Kari kamikaze you won't see another evening goodbye
Buenas noches senor Senorita see you later buenas noches bye bye

prechorus

There are (F#)many here among (B)us who (D)feel their lives are a (A)joke
And for (F#)you we sing this (B)final song for you(D) there is no hope (E)

chorus

Bye bye (A) so long (B) farewell (D) (A) Bye bye (B) so long (D)
sayonara (A) (B)bye bye (D) au revoir (A) auf weidersehen (B)

E--0-2-3-5-2-3-5-3-2-3-2-0--0-2-3-5-2-3-5-3-2-3-2-0-0-0-0-0-0-0-00

Bye bye (A) so long(B) farewell (D)  (A) bye bye (B) so long (D) suicide (A)
Bye bye (B) so long (D) hari kari (A) kami (B) kaze suicide (D)

outro

G----------------------------------------------------9-9-9-9-9-
D---------------------------2-1-0--------------------7-7-7-7-7-
A----------2-----1-0--0-3-4-------1-0------------2-1-0-0-0-0-0
E--0-0-3-4---1-0----------------------1-0--0-3-4----------------



questions, comments to senomar@bach.udel.edu
                  -I'm here, I'm queer, I play 5 string bass
Related for Auf Wiedersehen tab