Song name
# A B C D E F G H I J K L M N O P Q R S T U V W X Y Z

Cheap Trick - I Must Be Dreamin tab

I haven't found one tab for this song anywhere and it kicks so much a$$$$$!! :)


Drum Intro .......

Gtr1
E-------------------------------------------------------------------------|
B-------------------------------------------------------------------------|
G-------------------------------------------------------------------------|
D-------------------------------------------------------------------------|
A-------------------------------------------------------------------------|
E-0-0-0-0-0-0-0-0-0-0-0-0-0-0-0-0-0-0-0-0-0-0-0-0-0-0-0-0-0-0-0-0-0-0-0-0-|


E----------------------------------------------------|
B----------------------------------------------------|
G-9--x--4--x--3--x--x--2-- X4------------------------|                       Intro Riffs
D-0--x--0--x--0--x--x--2-----------------------------|
A-7--x--2--x--5--x--x--0-5---------------------------|
E------------------------3---------------------------|

Full Bend Up from G to an A
E------------------------|
B--4^--------------------|
G------------------------| X8
D------------------------|
A------------------------|
E------------------------|


------------------------------------------------------------------
Then it goes all nuts before the chorus riff which i think its this.

E------------------------------------|
B------------------------------------|
G------------------------------------|
D-5---7---9---11---------------------|
A-3-5-5-7-7-9-9-11-------------------|
E---3---5---7---9--2-2-2-2-2-0-0-0-0-|


Then repeat the beginning riff once and it comes into the chorus

E------------------------------------|
B------------------------------------|
G---9-7-9-11-9-7---------------------|
D---x-x-x-x-x-x----------------------|
A---7-5-7-9-7-5----------------------|
E-0-------------0--------------------|


Then the base line while hes singin is just an A
then it goes back into the riff above and ill finish the rest later or something i was 
just kinda annoyed that this awesome song wasnt tabbed out ha have fun
Tap to rate this tab
# A B C D E F G H I J K L M N O P Q R S T U V W X Y Z