Song name
# A B C D E F G H I J K L M N O P Q R S T U V W X Y Z

Cheap Trick - I Dont Love Here Anymore tab

-------------------------------------------------------------------------------
                             I Don't Love Here Anymore - Cheap Trick
-------------------------------------------------------------------------------
Tabbed by:Nick V.
E-mail:BlindTerry333@gmail.com

Tuning:EADGBE

I used a live acoustic version from Japan that was played in 2003 and can be found 
easily on YT.  Any differences between it and the original are small, if any at all.

Riff #1
e|-------------------------------------------------------------------------|
B|-------------------------------------------------------------------------|
G|-------2-0---------------------------------------------------------------|
D|-----0-----2-0-----0-----------------------------------------------------|
A|-0h2-----------0h2-------------------------------------------------------|
E|-------------------------------------------------------------------------|

Riff #2
e|------------------------------------------------------------------------|
B|------------------------------------------------------------------------|
G|--------7-5-------------------------------------------------------------|
D|-----5------7-5-----7---------------------------------------------------|
A|-5h7------------5h7-----------------------------------------------------|
E|------------------------------------------------------------------------|

Riff #3
e|-------------------------------------------------------------------------|
B|-------------------------------------------------------------------------|
G|---------4-2-------------------------------------------------------------|
D|------2------4-2-------2-------------------------------------------------|
A|------------------2h4----------------------------------------------------|
E|-2h4---------------------------------------------------------------------|

Riff #4
e|--------------------------------------------------------------------------|
B|--------------------------------------------------------------------------|
G|----------9-7-------------------------------------------------------------|
D|-------7------9-7-------7-------------------------------------------------|
A|--7h10-------------7h10---------------------------------------------------|
E|--------------------------------------------------------------------------|

(Riff 1)x4

Verses
(Riff #2)x2
(Riff #3)x2
(Riff #2)x2
(Riff #4)x2

(Riff #1)x2

Choruses

E                 A           B
You don't want to play by the rules
    C#m                       G#m
And I don't want to love here anymore
A                     B
You don't play by the rules (riff 1)

E                      A              B
You don't want to play by the rules

(Riff #2)x2
(Riff #3)x2
(Riff #2)x2
(Riff #4)x2

E                 A                B
You don't want to play by the rules

C#m G#m F#m

E                             G#m
You don't want to play by the rules
E                             G#m
And I don't want to love here anymore

A B C#m

E                 A           B
You don't want to play by the rules
    E                              G#m  E
And I don't want to love here anymore

(riff 1)

E
Tap to rate this tab
# A B C D E F G H I J K L M N O P Q R S T U V W X Y Z