Song name
# A B C D E F G H I J K L M N O P Q R S T U V W X Y Z

Cheap Trick - Special One tab

-----------------------------------------------------------------------------
                             Special One-Cheap Trick
----------------------------------------------------------------------------
Tabbed by:Nick V.
E-mail:BlindTerry333@gmail.com

Tuning:EADGBE

From the 2003 album of the same name.  CT also recorded the song in Japanese.

Intro:

The beginning of the song has a "drone" type sound that can be done on guitar. As you
play the E chord mute and pull off at the bridge using the ball your hand. That's the
easiest description I can think of.  Bruce Springsteen does it a lot with his acoustic 
songs if you want more examples.

E

e|-----------9---------------9----------------------------------------------|
B|-10--10/12----12---10/12-------12--7/9------------------------------------|
G|--------------------------------------------------------------------------|
D|--------------------------------------------------------------------------|
A|--------------------------------------------------------------------------|
E|--------------------------------------------------------------------------|


            E                      A
Two thousand years gone by and going strong
           E                        B
Well never fear my love it won't be long
           E                        A
You say you've had enough, it seems so wrong
          Am                 E
Now it's suicide, oh my love

e|-----------9---------------9----------------------------------------------|
B|-10--10/12----12---10/12-------12--7/9------------------------------------|
G|--------------------------------------------------------------------------|
D|--------------------------------------------------------------------------|
A|--------------------------------------------------------------------------|
E|--------------------------------------------------------------------------|



And now you know just why I'm here
Now my eyes they see so clear, no fear

E                                     A
Where do we go from here, it's in your head
E                                  B
So many tears we'll cry before we're dead
E                              A
Remember me my love and what we said
            Am                   E
I will stand by you all night long



And now you know just why I'm here
e|-----------9---------------9----------------------------------------------|
B|-10--10/12----12---10/12-------12--7/9------------------------------------|
G|--------------------------------------------------------------------------|
D|--------------------------------------------------------------------------|
A|--------------------------------------------------------------------------|
E|--------------------------------------------------------------------------|

And now my eyes can see so clear
Oh, baby

E
Just like the dreams you grow old and die
C#m                            
No one pretends to know just why
B                              A
I feel the calm before the storm
E
I'm here

      (riff)             E
e|--------------------------------------------------------------------------|
B|--------------------------------------------------------------------------|
G|--------------------------------------------------------------------------|
D|--------------------------------------------------------------------------|
A|-0-2-3-3--2---------------------------------------------------------------|
E|-------------3------------------------------------------------------------|

E                        G#
Kiss me again before you go
A                                    G#
There's something else that you should know
                   A                F#
My life will be hell without you my belle
A                     E
Oh, my love, my love

e|-----------9---------------9----------------------------------------------|
B|-10--10/12----12---10/12-------12--7/9------------------------------------|
G|--------------------------------------------------------------------------|
D|--------------------------------------------------------------------------|
A|--------------------------------------------------------------------------|
E|--------------------------------------------------------------------------|



...and now you know just why I'm here.

Questions, comments, insults-BlindTerry333
Tap to rate this tab
 
# A B C D E F G H I J K L M N O P Q R S T U V W X Y Z