Song name
# A B C D E F G H I J K L M N O P Q R S T U V W X Y Z

Cheap Trick - It All Comes Back To You tab

----------------------------------------------------------------------------
                             It All Comes Back To You-Cheap Trick
----------------------------------------------------------------------------
Tabbed by:Nick V.
E-mail:BlindTerry333@gmail.com

Tuning:EADGBE

From CT's 1997 self titled and also the beautiful version on "Silver". Everything 
but the choruses is played finger style but strumming the chords would sound okay.

Intro/First part of each verse

"Riff 1"
         D   /sus4 D /sus2 A  D    /sus4 D Asus4 A
e|-------2--2--3--2--0--0--0--2--2--3--2--0--0-----------------------------|
B|-3--5--3--3--3--3--3--2--2--3--3--3--3--3--2-----------------------------|
G|-------2--2--2--2--2--2--2--2--2--2--2--2--2-----------------------------|
D|-------0--0--0--0--0--2--2--0--0--0--0--2--2-----------------------------|
A|-------x--x--x--x--x--0--0--x--x--x--x--0--0-----------------------------|
E|-------x--x--x--x--x--x--x--x--x--x--x--x--x-----------------------------|

End of the verses

"Riff 2"

   G  Asus4 A G Asus4 A
e|--3--0--0--3--0--0-------------------------------------------------------|
B|--3--3--2--3--3--2-------------------------------------------------------|
G|--0--2--2--0--2--2-------------------------------------------------------|
D|--0--2--2--0--2--2-------------------------------------------------------|
A|--2--0--0--2--0--0-------------------------------------------------------|
E|--3--x--x--3--x--x-------------------------------------------------------|

Chorus

Bm (x24432) A

Bm Asus4 A

"Solo"

e|-2-2-2-3-3-5------------------------------------------------------------|
B|-0-0-0-0-0-0--2-2-2-3-3-5-----------------------------------------------|
G|--------------0-0-0-0-0-0-----------------------------------------------|
D|------------------------------------------------------------------------|
A|------------------------------------------------------------------------|
E|------------------------------------------------------------------------|


"Riff 1"
When all your friends have gone
How long will time go on

"Riff 2"
It all comes back to you
It all comes back to you

"Riff 1"
When I look up to the sky
Say a prayer for you tonight

"Riff 2"
It all comes back to you
Well with everything you do
G                             Asus4 A
Oh, yeah it all comes back to you

Bm                                A
I, if I could fly, I'd fly away tonight
Bm                             Asus4  A
So why, why fly, should I try tonight

"Riff 1"
The best I've ever had
It all went by so fast

"Riff 2"
So, it all comes down to you
With all the things you do

"Riff 1"
When the world is gone and done
Spent your life on the run

"Riff 2"
Yeah, it all comes back to you
With everything we do
G                         Asus4 A
Yeah, it all comes back to you

Bm                               A
I, if I could fly, I'd fly away tonight
Bm                              Asus4 A
So why, why, why, should I try tonight

Solo

"Riff 1"
I know what's done is done
Of all my loves, you're the one

"Riff2"
So, it all comes back to you
Yeah, with everything you do
G                    Asus4 A
It all comes back to you 

Questions, comments, insults...BlindTerry333.
Tap to rate this tab
 
# A B C D E F G H I J K L M N O P Q R S T U V W X Y Z