Song name
# A B C D E F G H I J K L M N O P Q R S T U V W X Y Z

Cheap Trick - Take Me To The Top chords

Highlighted       Show chord diagrams
----------------------------------------------------------------------------
                             Take Me To The Top-Cheap Trick
----------------------------------------------------------------------------
Tabbed by:Nick V.
E-mail:BlindTerry333@gmail.com

Tuning:EADGBE

Originally from their much loved album "The Doctor"....but this is based off the 
acoustic/live version from "Silver", where the keyboard parts are played on guitar.

E:022100
A*:007760
B*:009980
A:x02220
B:x2444x
C#m:x46654

Intro

   E  A* E  B* E  A* E  B* E
e|-0--0--0--0--0--0--0--0--0------------------------------------------------|
B|-0--0--0--0--0--0--0--0--0------------------------------------------------|
G|-1--6--1--8--1--6--1--8--1------------------------------------------------|
D|-2--7--2--9--2--7--2--9--2------------------------------------------------|
A|-2--7--2--9--2--7--2--9--2------------------------------------------------|
E|-0--0--0--0--0--0--0--0--0------------------------------------------------|

       E                    A
We go back a long, long way
          E                 A
Yet, it seems like yesterday
When the words are spoken
      B
Or whispered in your ear E A* E B* 
              E                      A
Things have changed since we first met
        E                      A
You alone are more than I expect
But the good outweighs the bad
     B
By 110 percent
                   E
You take me to the top
                      A    E
You're everything I've got
                       A
You catch me if I'm falling
B
Oh, all the way
E
You take me to the top
                        A     B
You catch me if I'm falling, oh
E                    A
Some things go in circles
E                   A  E
Something's in the air
     A                  B
You know just what I'm feeling
   A                    
You can make the difference
    B
You know I really care
                   E
You take me to the top
                         A  E
You're everything I've got
                A             B             E
You catch me if I'm falling, oh, all the way
                   E
You take me to the top
                     A
You catch me if I'm falling
            E
Oh ah ah oh
E
If I could dream a dream
              A
With a happy end
B
You'd be in it every night
A
Again and again
        B
Right here by my side
       C#m
You'd never go away
B
But when I'm awake
I sing I say
                   E
You take me to the top
                     A    E
You're everything I've got
     A               B
You catch me if I'm falling
              E
Oh, all the way
                 A     E
You take me to the top
     A                B        E
You catch me if I'm falling oh

E A* E B*A* B* E

Questions, comments, insults...BlindTerry333
Tap to rate this tab
# A B C D E F G H I J K L M N O P Q R S T U V W X Y Z