Song name
# A B C D E F G H I J K L M N O P Q R S T U V W X Y Z

Cheap Trick - All Those Years tab

-----------------------------------------------------------------------------
                             All Those Years - Cheap Trick
-----------------------------------------------------------------------------
Tabbed by:Nick V.
E-mail:BlindTerry333@gmail.com

From 2006's "Rockford".

Tuning:EADGBE

G Em C

Riff #1 (played in the intro and verses)

e|--------------------------------------------------------------------------|
B|--------------------------------------------------------------------------|
G|-2------------------------------------------------------------------------|
D|---4--0-2-4-2-0-2-0-------------------------------------------------------|
A|--------------------------------------------------------------------------|
E|--------------------------------------------------------------------------|


        G             Em
You know I feel the deep blue?
           C
You won't hear me cry, see me die
G                   Em
What am I going to do?
      C            
I can see your face every time

   G    D   C                      G
Anytime you fall, I'm here for you
             C             
Now, my heart cries

   Em         C
All those years
Em             C
It's a lonely, lonely night
A lonely, lonely, lonely night
   Em
All those years
         C
It's a lonely, lonely night
               Am                     G
A lonely, lonely, lonely, lonely night

         Em
I close my eyes
               C
I can see your face every time
               Em
How can I say to you
      C                                    
I'll do anything you want me to?
G        D   C                    G
Anytime you fall, I'm here for you
          C         
Yeah, my heart cries

Em            C
All those years
 Em               C
It's a lonely, lonely night
A lonely, lonely, lonely night
   Em
All those years
         C
It's a lonely, lonely night
               Am                     G
A lonely, lonely, lonely, lonely night

              Am
Right from the start
              C    D
I gave you my heart

G Em C G Em C

Solo
E|--------------------------------------------------------------------------|
B|-------10----10--12--12v--10--12--12-10-12-15v----------------------------|
G|-12b14----12--------------------------------------------------------------|
D|--------------------------------------------------------------------------|
A|--------------------------------------------------------------------------|
E|--------------------------------------------------------------------------|

Em           C
All those years
Em                    C
It's a lonely, lonely night
A lonely, lonely, lonely night
Em         C
All those years
         C
It's a lonely, lonely night
               Am                     G
A lonely, lonely, lonely, lonely night

Questions, comments, insults-BlindTerry333@gmail.com
Tap to rate this tab
# A B C D E F G H I J K L M N O P Q R S T U V W X Y Z