Song name
# A B C D E F G H I J K L M N O P Q R S T U V W X Y Z

Cheap Trick - Mandocello tab

                            Mandocello- Cheap Trick
-----------------------------------------------------------------------------
Tabbed by:Nick V.
E-mail:BlindTerry333@gmail.com

"Mandocello" comes from CT's 1977 self titled album.  The name, of course, is named 
after the mandocello instrument that is used in the song.  In C, just like a mandolin.  This 
is my version for guitar.


Intro (Figure #1)
e|-------------------------------------------------------------------------|
B|-------1------1--3---1--0--1---------------------------------------------|
G|-----0------0----0---0--0--0---------------------------------------------|
D|---2------2------2---2--2--2---------------------------------------------|
A|-3------3--------3---3--3--3---------------------------------------------|
E|-------------------------------------------------------------------------|

e|-----------------------------------------------------------------------|
B|-------1------1--3---1--0----------------------------------------------|
G|-----0------0----0---0--0----------------------------------------------|
D|---2------2------2---2--2----------------------------------------------|
A|-3------3--------3---3--3----------------------------------------------|
E|-----------------------------------------------------------------------|

Figure #2 (verses...listen for timing)

C (x3201x) C/A (x0201x) C/B (x2001x) C/A  C  C/A  C  C/A  C/B  C

Eb (x68xxx) G (x1012xx) Bb (x13xxx) C (x35xxx)

C  C/A   C/B  C/A  C  C/A  C  C/A  C/B  C

Eb  G  Bb  C

Figure #3 ("you're a million miles away or you're here")
e|--------------------------------------------------------------------------|
B|--------------------------------------------------------------------------|
G|--------------------------------------------------------------------------|
D|---2-3-----2-3----2-3-----------------------------------------------------|
A|-1------0--------------3--------------------------------------------------|
E|---------------4----------------------------------------------------------|


Bridge #1

Bb                        Gm
Look at me like I look at you
Bb                        Gm
Think of me like I think of you
Bb                        Gm
Speak to me like I spoke to you
Am                           C
Dream of me, how I dream of you

Bridge #2

C                Bb              G#
We can go down slowly like the rain
C               Am               G#
I could leave and be with you again, oh
Am                       G#          C
I could be your lover, let's pretend, oh


Solo (play Figure #2)

C (x3201x) C/A (x0201x) C/B (x2001x) C/A  C  C/A  C  C/A  C/B  C

Eb (x68xxx) G (x1012xx) Bb (x13xxx) C (x35xxx)

Outro
e|---------------------0-----0---------------------------------------------|
B|-------1------1--3---1--0--1---------------------------------------------|
G|-----0------0----0---0--0--0---------------------------------------------|
D|---2------2------2---2--2--2---------------------------------------------|
A|-3------3--------3---3--3--3---------------------------------------------|
E|-------------------------------------------------------------------------|

e|---------------------0-------------------------------------------------|
B|-------1------1--3---1--0----------------------------------------------|
G|-----0------0----0---0--0----------------------------------------------|
D|---2------2------2---2--2----------------------------------------------|
A|-3------3--------3---3--3----------------------------------------------|
E|-----------------------------------------------------------------------|

Questions, comments, insults...BlindTerry333@gmail.com
Tap to rate this tab
# A B C D E F G H I J K L M N O P Q R S T U V W X Y Z