Song name
# A B C D E F G H I J K L M N O P Q R S T U V W X Y Z

Cheap Trick - Didnt Know I Had It chords

Highlighted       Show chord diagrams
----------------------------------------------------------------------------
                             Didn't Know I Had It-Cheap Trick
----------------------------------------------------------------------------
Tabbed by:Nick V.
E-mail:BlindTerry333@gmail.com

Tuning:EADGBE

Very underrated song from 1994's "Woke Up With A Monster".

--------------------------------------------------------------------------
Bm (x22432) Bm/A (x02432) [ch]Bm/G[/ch] (3x2432) Bm/F# (2x4432)

A (x02220)  G(320033) D (x02320) Dsus4 (x00233)


G     A   D Dsus4 D Dsus4 D   G       A    
Ahhhh                         Ahhhh


Verse(Figure #1)
             Bm                          D

e|-----2-------2-----2----2-----2-------2----2----2----2-----2--------------|
B|---3------3------3----3-----3-------3----3----3----3-----3----------------|
G|-4-----4-------4----4-----4-------2----2----2----2-----2------------------|
D|--------------------------------------------------------------------------|
A|--------------------------------------------------------------------------|
E|--------------------------------------------------------------------------|



Bm                                                      D
It was so easy that I started thinkin' somethin' had to change.

Bm                                                           D
The gift of love was somethin' that I thought I'd go out and exchange.

Bm           Bm/A       [ch]Bm/G[/ch]        Bm/F#   Bm
I didn't realize how much you meant to me.
Bm           Bm/A         [ch]Bm/G[/ch]      Bm/F#       
And now you're locked up with a brand new set of keys.
D           C                G
You said I might regret the day I let you go
D           C                G
I'd wind up stranded like a washed up gigolo
D           C                G
I'd get more static than a broken radio
D           C                  D
You were the right one all along...ooh.

           G                    A
'Cause I didn't know I had it

                D  Dsus4 D Dsus4 D
'Til I threw it away.
          G                     A
I've been holdin' everything except for love
Bm                          Bm Bm/A
I wish I had you back today
        G      
Oh, I didn't know I had it
A                D   Dsus4 D Dsus4 D
'Til I threw it away.

Verse (Figure #1)

e|-----2-------2-----2----2-----2-------2----2----2----2-----2--------------|
B|---3------3------3----3-----3-------3----3----3----3-----3----------------|
G|-4-----4-------4----4-----4-------2----2----2----2-----2------------------|
D|--------------------------------------------------------------------------|
A|--------------------------------------------------------------------------|
E|--------------------------------------------------------------------------|


Bm                                           D
Each day my hindsight just gets better
Bm                              D
But I know that love is blind.   (Love is blind)

Bm                                                   D
You were the only ray of sunshine I was ever gonna find. (Gonna find)

Bm           Bm/A       [ch]Bm/G[/ch]        Bm/F#   Bm
You were the magic and I made you disappear.

Bm           Bm/A       [ch]Bm/G[/ch]        Bm/F#   
Now I'd give everything I own to have you here.

D            C                  G
You told me I was gonna make a big mistake

D               C                          G
I didn't know how many times my heart could break.
D                C                        G
Now in the middle of the night, I'm still awake.

D                  C            D
And all I can think of is you...ooh, ooh, ooh.

           G 
'Cause I didn't know I had it
A                D  Dsus4 D Dsus4 D
'Til I threw it away.
          G                     A
I've been holdin' everything except for love
Bm                          Bm Bm/A
I wish I had you back today
        G      
Oh, I didn't know I had it
A                D   Dsus4 D Dsus4 D
'Til I threw it away.

         G             A                D Dsus4 D
Now I know in my heart, I threw it away.
          G                        A
I've been holdin' onto everything except for love

Bm                          Bm Bm/A
I wish I had you back today
        G      
Oh, I didn't know I had it
A                D   Dsus4 D Dsus4 D
'Til I threw it away.

SOLO

Bm D Bm

D           C                G
You said I might regret the day I let you go
D           C                G
I'd wind up stranded like a washed up gigolo
D           C                G
I'd get more static than a broken radio
D           C                  D
You were the right one all along...ooh.

           G 
'Cause I didn't know I had it
A                D  Dsus4 D Dsus4 D
'Til I threw it away.
          G 
I've been holdin' everything except for love
Bm                          Bm Bm/A
I wish I had you back today
        G      
Oh, I didn't know I had it
A                D   Dsus4 D Dsus4 D
'Til I threw it away.

Questions, comments, insults...BlindTerry333
Tap to rate this tab
 
# A B C D E F G H I J K L M N O P Q R S T U V W X Y Z