Song name
# A B C D E F G H I J K L M N O P Q R S T U V W X Y Z

Cheap Trick - Next Position Please tab

---------------------------------------------------------------------------
                            Next Position Please-Cheap Trick
---------------------------------------------------------------------------
Tabbed by:Nick V.
E-mail:BlindTerry333@gmail.com

Title track from 1983's "Next Position Please"


Tuning:EADGBE


Intro:

People all over the world
They get up, they get down
They get in, they get out
They get pushed, they go back 
Start all over again, 'til they get to the end

e|--------------------------------------------------------------------------|
B|--------------------------------------------------------------------------|
G|-9--8--6--6--8--9--6--5--8--9--6--5--6--8--9------------------------------|
D|-x--x--x--x--x--x--x--x--x--x--x--x--x--x--x------------------------------|
A|-7--6--4--4--6--7--4--3--6--7--4--3--4--6--7------------------------------|
E|--------------------------------------------------------------------------|

Verse: x2

e|-0-0-0------0--0--0-------2-2-2------0-0-0-------------------------------|
B|-0-0-0------2--2--2-------3-3-3------2-2-2-------------------------------|
G|-1-1-1------2--2--2-------2-2-2------2-2-2-------------------------------|
D|-2-2-2------2--2--2-------0-0-0------2-2-2-------------------------------|
A|-2-2-2---2--0--0--0---3---0-0-0---3--0-0-0-------------------------------|
E|-0-0-0------x--x--x-------x-x-x------x-x-x-------------------------------|

I'm from a small town and a poor family 
Mama was sick, papa worked the factory 
I led a rich life, never had to work hard 
House in the country, horses in my backyard 

Chorus:

C#m 
Next position please
      A 
Do I have to get down on my knees
C#m 
Next position please
            D       A         E 
I'm in a hurry, so hurry please 

Verse: x2

e|-0-0-0------0--0--0-------2-2-2------0-0-0-------------------------------|
B|-0-0-0------2--2--2-------3-3-3------2-2-2-------------------------------|
G|-1-1-1------2--2--2-------2-2-2------2-2-2-------------------------------|
D|-2-2-2------2--2--2-------0-0-0------2-2-2-------------------------------|
A|-2-2-2---2--0--0--0---3---0-0-0---3--0-0-0-------------------------------|
E|-0-0-0------x--x--x-------x-x-x------x-x-x-------------------------------|

Read between the lines, learn a new message 
Read the latest book, it's a new twist 
Be the first one to have a new idea 
You'll never get bored with mirrors on the ceiling 

C#m
Next position please 
         A
Do I have to get down on my knees
C#m 
Next position please
           D           A       E 
I'm in a hurry, so hurry please 

e|--------------------------------------------------------------------------|
B|--------------------------------------------------------------------------|
G|-9--8--6--6--8--9--6--5--8--9--6--5--6--8--9------------------------------|
D|-x--x--x--x--x--x--x--x--x--x--x--x--x--x--x------------------------------|
A|-7--6--4--4--6--7--4--3--6--7--4--3--4--6--7------------------------------|
E|--------------------------------------------------------------------------|

People all over the world 
They get up, they get down 
They get in, they get out 
They get pushed, they go back 
Start all over again, 'till they get to the end 

Verse: x2

e|-0-0-0------0--0--0-------2-2-2------0-0-0-------------------------------|
B|-0-0-0------2--2--2-------3-3-3------2-2-2-------------------------------|
G|-1-1-1------2--2--2-------2-2-2------2-2-2-------------------------------|
D|-2-2-2------2--2--2-------0-0-0------2-2-2-------------------------------|
A|-2-2-2---2--0--0--0---3---0-0-0---3--0-0-0-------------------------------|
E|-0-0-0------x--x--x-------x-x-x------x-x-x-------------------------------|

I wanna move up within the company 
I can do better with an opportunity 
Why don't they use me, instead of abuse me? 
I'm ten out of ten, not some whore in some movie 
I wanna be the biggest gun in the world 
I wanna see the tits on every girl 

C#m
Next position please
                 A 
You have to get down on your knees
C#m 
Next position please 
            D        A        E
I'm in a hurry, so hurry please 

e|--------------------------------------------------------------------------|
B|--------------------------------------------------------------------------|
G|-9--8--6--6--8--9--6--5--8--9--6--5--6--8--9------------------------------|
D|-x--x--x--x--x--x--x--x--x--x--x--x--x--x--x------------------------------|
A|-7--6--4--4--6--7--4--3--6--7--4--3--4--6--7------------------------------|
E|--------------------------------------------------------------------------|

Questions, comments, insults-BlindTerry333
Tap to rate this tab
# A B C D E F G H I J K L M N O P Q R S T U V W X Y Z