Song name
# A B C D E F G H I J K L M N O P Q R S T U V W X Y Z

Cheap Trick - Borderline tab

-----------------------------------------------------------------------------
                             Borderline-Cheap Trick
-----------------------------------------------------------------------------
Tabbed by:Nick V.
E-mail:BlindTerry333@gmail.com

Tuning:EADGBE

From 1983's "Next Position Please"

Riff #1
e|--------------------------------------------------------------------------|
B|--------------------------------------------------------------------------|
G|--------------------------------------------------------------------------|
D|-4---4-4-4---4-4-4---4-4-4---4-4------------------------------------------|
A|-0h2-2-2-0h2-2-2-0h2-2-2-0h2-2-2------------------------------------------|
E|--------------------------------------------------------------------------|

E  A  E  A 

E                              A        Riff #1
Run out of money and runnin' out of luck
A                                  E
Run into problem I never, never thought of
E                             A         Riff #1
It seems like I didn't run out of my dreams
A                                               E
But we've got each other and tonight we're gonna leave

C#m            B
To the borderline
A                      E
Leave all our troubles behind
C#m         F#
At the borderline
A                     B
Forget all our troubles tonight

E  A   E   A

E                       A     Riff #1
A broken promise is a broken dream
A                                 E
We've all had so many, too many for me
E                                  A          Riff #1
Impossible to have freedom when things aren't free
A                                              E
But we've got each other and tonight we're gonna leave

C#m            B
To the borderline
A                      E
Leave all our troubles behind
C#m         F#
At the borderline
A                     B
Forget all our troubles tonight
C#m            B
To the borderline
A                      E
Leave all our troubles behind
C#m               F#
At the borderline
A
Forget all our trouble
Leaving all our troubles
B
At the borderline

B
I wanna go, I wanna go
                  A
Oh, I'll go anywhere
G#m                        
I wanna go, I wanna go away from here
        A       
Is all I really care

Solo (C#m  B  A  E  C#m   F#  A   B)

e|--------------------------------------------------------------------------|
B|-9b-9-9-7--------------------9b-9-9-7--5--5--5--3/2p0---------------------|
G|------------9-9-9-9-9b----------------------------------------------------|
D|-----------------------11-9-----------------------------------------------|
A|--------------------------------------------------------------------------|
E|--------------------------------------------------------------------------|

e|-0h2h4--4-4/5---5-5/7---7-7/9---9-9/11--<12>------------------------------|
B|--------------------------------------------------------------------------|
G|--------------------------------------------------------------------------|
D|--------------------------------------------------------------------------|
A|--------------------------------------------------------------------------|
E|--------------------------------------------------------------------------|

E                              Riff #1
Runnin' away from the girl of my dreams
A                                 E
Runnin' away from a life of broken dre-e-eams

C#m            B
To the borderline
A                      E
Leave all our troubles behind
C#m              F#
At the borderline
A                    E
Leave all our troubles behind
C#m             B
At the borderline
A
Forget all our troubles
Leavin' all our troubles
          B
At the borderline
          E       A E
At the borderline

Questions, comments, insults-BlindTerry333
Tap to rate this tab
# A B C D E F G H I J K L M N O P Q R S T U V W X Y Z