Song name
# A B C D E F G H I J K L M N O P Q R S T U V W X Y Z

Cheap Trick - Reach Out chords

Highlighted       Show chord diagrams
--------------------------------------------------------------------------
                            Reach Out-Cheap Trick
--------------------------------------------------------------------------
Tabbed by:Nick V.
E-mail:BlindTerry333@gmail.com

Tuning:EADGBE

From the "Heavy Metal" soundtrack.

E5(079xxx) E(07999x) Esus(079910x) C#(x4666x)

D(x5777x) A(x022xx)B(x244xx)Bsus(x2445x)

F(x8101010x) D#(x6888x) C(x3555x) Bb(x1333x)
 
Intro 
        x8       
e|--------------------------------------------------------------------------|
B|--------------7-----------------------------------------------------------|
G|---7----9--7-----7--------------------------------------------------------|
D|-7---7--------------------------------------------------------------------|
A|--------------------------------------------------------------------------|
E|--------------------------------------------------------------------------|

(Riff #1)

e|--------------------------------------------------------------------------|
B|--------------7---------------------7-------------------------------------|
G|---7----9--7-----7-------7----9--7-----7----------------------------------|
D|-7---7----------------7----7----------------------------------------------|
A|--------------------------------------------------------------------------|
E|--------------------------------------------------------------------------|



E5                             E
No oneís going to give it away
                      Esus        E
They make it hard for the people today
  C#                 D
To get what you want, youíve got to do it yourself (Riff #1)
E5                                           E
Donít be afraid to drive the nail in the wood 
                       Esus         E     C#
Or drink the water that tastes so good
                        D               
Youíll go the distance, you never thought that you could (Riff #1)

A                 B     Bsus
Reach out and take it
A             E       C#    A 
Reach out and t-t-take it
                  B      Bsus
Reach out and take it
A             E       C#       A
Reach out and ta-ta-ta take it
A                 B 
Reach out and take it, oh yeah 

(Riff #1) 


E5                                          E                      
Cough up the cash when you go over and over 
                                Esus    E
Before the old oneís gone, youíve got a new owner
C#                     D         
You need assistance when your headís in the clouds (Riff #1)
E5                                E
You could live easy if life stood still
                                Esus     E         C#
You could be faking and breaking and taking it all
                      D 
But then you know youíre gonna fall (Riff#1) 

A                 B     Bsus
Reach out and take it
A             E       C#    A 
Reach out and t-t-take it
                  B      Bsus
Reach out and take it
A             E       C#       A
Reach out and ta-ta-ta take it
A                 B 
Reach out and take it, oh yeah 

B                             A  B
Donít have to take make so hard
                              A  B 
Donít have to make it so, so hard 
B                             A  B                          
Donít have to make it so hard
                           D 
Donít have to make it so hard 

A                 B     Bsus
Reach out and take it
A             E       C#    A 
Reach out and t-t-take it
                  B      Bsus
Reach out and take it
A             E       C#          A
Reach out and ta-ta-ta take it, oh baby
A                 B 
Reach out and take it, oh yeah 

F  D#  C   Bb   
           Reach out                 

F  D#  C   Bb
           Reach out

F      D#       C   
Take what you want
Bb 
Reach out
F      D#       C   
Take what you want 
Bb
Reach out 

F  D# C Bb
Tap to rate this tab
# A B C D E F G H I J K L M N O P Q R S T U V W X Y Z