Song name
# A B C D E F G H I J K L M N O P Q R S T U V W X Y Z

Cheap Trick - Up The Creek tab

-------------------------------------------------------------------
                             Up the Creek-Cheap Trick
-------------------------------------------------------------------
Tabbed by:Nick V.
E-mail:BlindTerry333@gmail.com

Tuning:EADGBE

E:022100  B5:x244xx  A5:x022xx  G:3xxx33  D:x00232

C#m:x46654 G#m:466444 E(VII):07999x B(VII):799877 A(V0:577655

 
   
   E  B5   A5   E  B5 B5 A5        E
e|-0--x--x--x---0--x--x--0----------------------------------------------|
B|-0--x--x--x---0--x--x--0----------------------------------------------|
G|-1--4--2--2---1--4--4--2----------------------------------------------|
D|-2--4--2--2---2--4--4--2----------------------------------------------|
A|-2--2--0--0---2--2--2--0----------------------------------------------|
E|-0--x--x--x---0--x--x--x--------12/0---0-0-0-0-0-0-0-0-0-0-0-0-0------|

Figure #1 

Just like the one that got away,
                     A5
So close but yet so far.

Figure #2

  A  C#  E  D# C#           G  A5              
e|--------------------------------------------------|
B|--------------------------------------------------|
G|--------------------------------------------------|
D|--------------------------------------------------|
A|----4--7--6--4------------------------------------|
E|-5------------------------------------------------|

I threw my hook into the water, I nearly caught her
G            A5
How bizarre now 

D     A5        G  
I知 up the creek, although I've lost a little pride
D     A5        G
I知 up the creek, I know that time is on my side

E(VII) B(VII)      A(V)
I知    up the creek, don稚 you pull the plug on me
E(VII) B(VII)      A(V)
I知 up the creek

                  C#m
There more than one fish in the sea
         G#m           A5
I知 not about to let it be
             B5                E B5 A5  E  B5  A5 E
I know that I'm up the creek.         Hey, hey
                                                A  
The foreign legions always there, I need a holiday

 A  C#  E  D# C#     G  A5           
e|--------------------------------------------------|
B|--------------------------------------------------|
G|--------------------------------------------------|
D|--------------------------------------------------|
A|----4--7--6--4------------------------------------|
E|-5------------------------------------------------|
                                               G         A5 
Daydream in the desert, with no pressure, that痴 the way, now

D     A5        G  
I知 up the creek although, I've lost a little pride
D     A5        G
I知 up the creek, I know that time is on my side
E(VII) B(VII)      A(V)
I知    up the creek, don稚 you pull the plug on me
E(VII) B(VII)      A(V)
I知 up the creek

                C#m
There more than one fish in the sea
         G#m           A5
I知 not about to let it be
B5                          E B5 B5 A5  E  B5 B5 A5 E
I know that I'm up the creek.             Hey, hey!


G                   C
I知 up the creek, without a paddle
G                   C                          G D C
I知 up the creek, but that don稚 matter at all
                 G D C
No matter at all

A5                  D   
I知 up the creek, without a paddle
A5                  D                           A D E
I知 up the creek, I知 learning to battle it all 

E  B5  A5   E  B5  A5

E  B5 B5  A5
I知 up the creek

F#5    C#5    B5           F#5 C#5 B5
I知             up the creek, here I go! You wanna go?
F#    C#5   B5         F#5  C#5 B5
I知             up the creek,        help me! help me!
F#5   C#5     B5           F#5  C#5 B5
I知             up the creek I知 up the creek

F#5   C#5   B5
I知           up the creek

F#5 C#5 B5 (till fade)

Questions, comments, insult-BlindTerry333
Tap to rate this tab
 
# A B C D E F G H I J K L M N O P Q R S T U V W X Y Z