Song name
# A B C D E F G H I J K L M N O P Q R S T U V W X Y Z

Cheap Trick - Miss Tomorrow chords

--------------------------------------------------------------------------
                             Miss Tomorrow-Cheap Trick
---------------------------------------------------------------------------
Tabbed by:Nick V.
E-mail:BlindTerry333@gmail.com

Tuning:EADGBE

From their 2009 album "The Latest".

(Figure #1)

e|--------------------------------------------------------------------------|
B|--------------------------------------------------------------------------|
G|--2-0-2p0--------2-0--2p0-------------------------------------------------|
D|-----------0h2-------------0h2--------------------------------------------|
A|--------------------------------------------------------------------------|
E|--------------------------------------------------------------------------|

Strings (Figure #2)

e|--------------------------------------------------------------------------|
B|--3-5-7-7-5-3-3h5--3-5-7-7-5----------------------------------------------|
G|--------------------------------------------------------------------------|
D|--------------------------------------------------------------------------|
A|--------------------------------------------------------------------------|
E|--------------------------------------------------------------------------|

Intro

   A  G# G  F# F
e|-5--4--3--2--1-----------------------------------------------------------|
B|-5--4--3--2--1-----------------------------------------------------------|
G|-6--5--4--3--2-----------------------------------------------------------|
D|-7--6--5--4--3-----------------------------------------------------------|
A|-7--6--5--4--3-----------------------------------------------------------|
E|-5--4--3--2--1-----------------------------------------------------------|

E
Strange, how funny things can be (Figure #1
E                                  (Figure #1)
Strange, the things you said to me
A
Strange, I could have laughed until I cried (w/Figure #2)
E                                            (Figure #1)
Strange, I could have took you for my bride

 A  G# G  F# F
e|-5--4--3--2--1-------------------------------------------------------------|
B|-5--4--3--2--1-------------------------------------------------------------|
G|-6--5--4--3--2-------------------------------------------------------------|
D|-7--6--5--4--3-------------------------------------------------------------|
A|-7--6--5--4--3-------------------------------------------------------------|
E|-5--4--3--2--1-------------------------------------------------------------|


Chorus (Figure #3)

          D   Em   C C/B C C/B C D

e|--------2---0-------------------------------------------------------------|
B|--------3---0-------------------------------------------------------------|
G|--------2---0-------------------------------------------------------------|
D|--------0---2---5--5--5--5--5--7------------------------------------------|
A|--------0---2---3--2--3--2--3--5------------------------------------------|
E|-/12----x---0-------------------------------------------------------------|

(Figure #3)

D                       Em        C C/B C C/B C D
Here she comes, Miss Tomorrow...oh
         D                                  Em   C  C/B C C/B C D
Here she comes (here she comes) Miss Tomorrow...oh
D                       Em        C  C/B C C/B C D
Here she comes, Miss Tomorrow...oh
         D                                  Em     C C  C/B C C/B C D
Here she comes (here she comes), Miss Tomorrow....oh


E
Cold, you left me froze to the bone (Figure #1)
E
Cold, your lips were like kissing stone (Figure #1)
A
Love, you said that love is all you need (w/Figure #2)
E
Cold, you taught the Beatles "Let it Bleed" (Figure #1)

   A  G# G  F# F
e|-5--4--3--2--1-------------------------------------------------------------|
B|-5--4--3--2--1-------------------------------------------------------------|
G|-6--5--4--3--2-------------------------------------------------------------|
D|-7--6--5--4--3-------------------------------------------------------------|
A|-7--6--5--4--3-------------------------------------------------------------|
E|-5--4--3--2--1-------------------------------------------------------------|

(Figure #3)

D                       Em        C C/B C C/B C D
Here she comes, Miss Tomorrow...oh
         D                                  Em   C  C/B C C/B C D
Here she comes (here she comes) Miss Tomorrow...oh
D                       Em        C  C/B C C/B C D
Here she comes, Miss Tomorrow...oh
         D                                  Em     C C  C/B C C/B C D
Here she comes (here she comes), Miss Tomorrow....oh

D                       Em        C C/B C C/B C D
Here she comes, Miss Tomorrow...oh
         D                                  Em   C  C/B C C/B C D
Here she comes (here she comes) Miss Tomorrow...oh
D                       Em        C  C/B C C/B C D
Here she comes, Miss Tomorrow...oh
         D                                  Em     C C  C/B C C/B C D
Here she comes (here she comes), Miss Tomorrow....oh


Questions, comments, insults...BlindTerry333
Tap to rate this tab
 
# A B C D E F G H I J K L M N O P Q R S T U V W X Y Z