Song name
# A B C D E F G H I J K L M N O P Q R S T U V W X Y Z

Cheech And Chong - Earache My Eye tab

Cheech And Chong - Earache My Eye
Tabbed by Johnnie D.
Standard tuning
for one guitar

\=slide down
/=slide up
~=whammy
h=hammer on
p=pull off
b=bend

E|------------12p10910-------------------------------------------------|
B|--------------------12p10910-----------------------------------------|
G|----------------------------12p10--10--------------------------------|
D|---------------------------------12--12p10--10-----------------------|
A|------------------------------------------12--12p10\9----------------|
E|-12\0--0~0-------------------------------------------12\7/1212121012-|


E|----------------------|
B|----------------------|
G|----------------------|X2
D|----------------------|
A|-------55---------55--|
E|-765765--7--765765--7-|


E|---------------------7-|
B|-------------------57--|
G|-----------------------|
D|-755---533-------------|
A|----5-----3--75--------|
E|---------------77------|

*
E|----------------------|
B|----------------------|
G|----------------------|
D|----------------------|
A|-------55---------55--|
E|-765765--7--765765--7-|

             1 My momma talking to me
             2 My daddy he disowned me
             3 My basketball coach he

E|---------------------7/-|
B|-------------------57---|
G|------------------------|back to * and
D|-755---533--------------|play 2 more times
A|----5-----3--75---------|then continue
E|---------------77-------|


E|-----------------------------------11-------------------------------------10-|
B|-----------121012p101210121012p1012--12101212p10\9------10--------------10---|
G|--------------------------------------------------12912b--12b12p10--1012-----|
D|------------------------------------------------------------------12---------|
A|-------55--------------------------------------------------------------------|
E|-765765--7-------------------------------------------------------------------|


----------------------10-|
--------------------10---|
12109-------------12-----|solo played
-----1210912p10p99-------|with wah wah
-------------------------|
-------------------------|

*
E|----------------------|
B|----------------------|
G|----------------------|
D|----------------------|
A|-------55---------55--|
E|-765765--7--765765--7-|

             1 The world's coming to an end
             2 and it don't bother me if

E|---------------------7/-|
B|-------------------57---|
G|------------------------|back to * and
D|-755---533--------------|play 1 more time
A|----5-----3--75---------|then continue
E|---------------77-------|


E|----------------------------------------------------10---|
B|----------------1012-12109---12p11p912p11p912p11p912--12-|
G|-----------91012----------119----------------------------|
D|-------9/12----------------------------------------------|
A|---------------------------------------------------------|
E|-70-0----------------------------------------------------|


-------------------------------------------------------------------------|
-14h16h1714h16h1714h16h1715h17h1815h17h1815h17h1816h18h1916h18h1916h18h19|
-------------------------------------------------------------------------|
-------------------------------------------------------------------------|
-------------------------------------------------------------------------|
-------------------------------------------------------------------------|


-----------------------------------------------------------|
17h19h2017h19h2017h19h2021b--------------------------------|
--------------------------------------------12p10--11101299|
----------------------------------------1214-----12--------|
------------------------------------1214-------------------|
---------------------------0-10/1214-----------------------|
Tap to rate this tab
 
# A B C D E F G H I J K L M N O P Q R S T U V W X Y Z