Cheech And Chong - Mexican Americans tab

The chords for this tune are F and C79

   F    C79
e|-1------------------------------------------------------------------------|
B|-1-----3------------------------------------------------------------------|
G|-2-----3------------------------------------------------------------------|
D|-3-----2------------------------------------------------------------------|
A|-3-----3------------------------------------------------------------------|
E|-1------------------------------------------------------------------------|

You can follow the chords version of this to know when to change.

Here are the little licks

Lick 1                       Lick 2

e|----------------------------6---5-----------------------------------------|
B|----------------------------5---4--------3--------------------------------|
G|---5---3---1~---------------5---4--------3--------------------------------|
D|---5---3---2~----------------------------2--------------------------------|
A|-----------------------------------------3--------------------------------|
E|--------------------------------------------------------------------------|


Tap to rate this tab
 
# A B C D E F G H I J K L M N O P Q R S T U V W X Y Z