Song name
# A B C D E F G H I J K L M N O P Q R S T U V W X Y Z

Cheech And Chong - Beaners tab

Help us improve GuitareTab! Take a short survey!
-----------------------------------------------------------------------
			     BEANERS – Tommy Chong
-----------------------------------------------------------------------
Tabbed by: GraceKim
Email: seno_guapo@hotmail.com

Tuning: Standard


This is how Tommy Chong plays the song.  It’s a blues shuffle.  Use up strokes and down strokes.
e|------------------------|------------------------|------------------|
B|------------------------|------------------------|------------------|
G|------------------------|------------------------|------------------|
D|---2--2--4--2--5---4--2-|-2--2--4--2--5----4--2--|------------------|
A|---0--0--0--0--0---0--0-|-0--0--0--0--0----0--0--|-repeat-----------|
E|------------------------|------------------------|------------------|

Tommy Chong doesn’t play this part, but theoretically the song can be continued in the I 
IV – V progression.  Check it out.
e|------------------------|------------------------|
B|------------------------|------------------------|
G|---2--2--4--2--5---4--2-|-2--2--4--2--5----4--2--|
D|---0--0--0--0--0---0--0-|-0--0--0--0--0----0--0--|
A|------------------------|------------------------|
E|------------------------|------------------------|

e|------------------------|------------------------|
B|------------------------|------------------------|
G|------------------------|------------------------|
D|---2--2--4--2--5---4--2-|-2--2--4--2--5----4--2--|
A|---0--0--0--0--0---0--0-|-0--0--0--0--0----0--0--|
E|------------------------|------------------------|


e|------------------------|------------------------|
B|------------------------|------------------------|
G|------------------------|-2--2--4--2--5----4--2--|
D|------------------------|-0--0--0--0--0----0--0--|
A|---2--2--4--2--5---4--2-|------------------------|
E|---0--0--0--0--0---0--0-|------------------------|

e|------------------------|------------------------|
B|------------------------|------------------------|
G|------------------------|------------------------|
D|---2--2--4--2--5--------|-4--4--4--4--4--4--4----|
A|---0--0--0--0--0--0-1-2-|-2--2--2--2--2--2--2----|
E|------------------------|------------------------|
			Turnaround
Related for Beaners tab