Song name
# A B C D E F G H I J K L M N O P Q R S T U V W X Y Z

Cheese - Steve tab

Standard Tuning
(EADGBe)

Intro:
Play these 4x...
e|-------------------------------|
B|-------------------------------|
G|-------------------------------|
D|--9-9-9-9/7-7-7-5-4-5-3--------|
A|--7-7-7-7/5-5-5-3-4-3-1--------|
E|--7-7-7-7/5-5-5-3-2-3-1--------|

then
e|-------------------------------|
B|-------------------------------|
G|-------------------------------|
D|--5-4-5-3--3--3--3--3----------|
A|--3-4-3-1--1--1--1--1----------|
E|--3-2-3-1--1--1--1--1----------|

Verse:
Play these 4x...
e|-----------------------------------|
B|-----------------------------------|
G|-----------------------------------|
D|--------4-----------2-------4------|
A|--0-2-3---3-2-0-2-3---3-2-0---3-2--|
E|-----------------------------------|

then...
e|--------------|
B|--------------|
G|--------------|
D|--0--3--3--0--|
A|--0--1--1--0--|
E|--0--1--1--0--|

Chorus:
Guitar 1. Play these 2x
e|-----------------------------------|
B|-----------------------------------|
G|-----------------------------------|
D|--7-7-7-7-7-7-7-7-9-9-12-12-12-12--|
A|--7-7-5-5-5-5-x-x-x-x--x--x--x--x--|
E|--5-4-5-5-5-5-5-5-7-7-10-10-10-10--|

Guitar 2. Play these 2x
e|-------------------------------|
B|-------------------------------|
G|-------------------------------|
D|--7-7-7-7-7-7--0-4-7-7-7-7-----|
A|--7-7-5-5-5-5--0-2-5-5-5-5-----|
E|--5-4-5-5-5-5--0-2-5-5-5-5-----|

Interlude:
Play these 4x
e|--0----------------0-------------|
B|--0----------------0-------------|
G|--0----------------0-------------|
D|--0-------/14------0-------/14---|
A|--0-------/12------0-------/12---|
E|--0-------/12------0-------/12---|


Pls rate this tab...
For comments, email me at puremassacre81@silverchair.nu or txt me.. 09283273282
Comments are appreciated...
Tap to rate this tab
# A B C D E F G H I J K L M N O P Q R S T U V W X Y Z