Song name
# A B C D E F G H I J K L M N O P Q R S T U V W X Y Z

Cheese - Six tab

                   
                        "SIX"BY CHEESE(KESO)
                      transcribed by:freongang              
                 visit me at:freongang_81@yahoo.com
                       freongang_08@yahoo.com

tuning: dropped D
intro:          X4             
D|---------------------------|
A|---------------------------|
F|---------------------------|
C|---------------------------|
G|-----------3-3-3-----------|
D|---7--1-0--------1-0-------|

 Call me strange...
D|----------------------------------------|
A|----------------------------------------|
F|----------------------------------------|
C|--3h0--3h0--3h0--3h0--3h0--3h0--3h0-----|
G|--3h0--3h0--3h0--3h0--3h0--3h0--3h0-----|
D|--1h0--1h0--1h0--1h0--1h0--1h0--1h0-----|

             X4             
D|---------------------------|
A|---------------------------|
F|---------------------------|
C|---------------------------|
G|-----------3-3-3-----------|
D|---7--1-0--------1-0-------|
     
 Kill in your head...  X4             
D|---------------------------|
A|---------------------------|
F|---------------------------|
C|-----------5-5-5-----------|
G|---9--3-0--3-3-3-3-0-------|
D|---7--1-0--------1-0-------|

D|----------------------------------------|
A|----------------------------------------|
F|----------------------------------------|
C|----------------------------------------|
G|--9---3---9---3---9---3---9---3---9---3-|
D|--7---1---7---1---7---1---7---1---7---1-|

           <<<>>>
Tap to rate this tab
 
# A B C D E F G H I J K L M N O P Q R S T U V W X Y Z