Song name
# A B C D E F G H I J K L M N O P Q R S T U V W X Y Z

Cheese - Garden Fresh tab

(#)- harmonic
/  - slide up/down
b  -bend

Standard Tuning
(EADGBe)


Intro
Guitar 1
e|-------------------------------------------|
B|-------------------------------------------|
G|-------------------------------------------|
D|-------------------------------------------|
A|-----------------------------(7)-----------|
E|--7-7-7-7-7-6-7-6-7---(7)-(7)---(7)-(7)----|

Guitar 2
e|-------------------------------------------|
B|-------------------------------------------|
G|-----------------------7-7-7-7/8-8/9-------|
D|-----------------------7-7-7-7/8-8/9-------|
A|-----------------------5-5-5-5/6-6/7-------|
E|-------------------------------------------|
                      pm--------------

Verse
e|-------------------------------------------|
B|-------------------------------------------|
G|-------------------------------------------|
D|-------------------------------------------|
A|-------------------7-7-7-7-7---------------|
E|--7-7-7-7-7-4-4-4------------7-7-7---------|

then
e|-------------------------------------------|
B|-------------------------------------------|
G|----------7-7-7-7/8-8-8--------------------|
D|----------7-7-7-7/8-8-8--------------------|
A|--7-------5-5-5-5/6-6-6--------------------|
E|----7--4-----------------------------------|
            pm-----------

Chorus
e|----------------------------------------------------------------|
B|----------------------------------------------------------------|
G|----------------------------------------------------------------|
D|----------------------------------------------------------------|
A|--6-7-7-6-7b-6-7b-6-7b-6-7-7-7----------------------------------|
E|---------------------------------6-7-7-6-7b-6-7b-6-7b-6-7-7-7---|

Bridge
e|----------------------------------------------------------------------|
B|----------------------------------------------------------------------|
G|----------------------------------------------------------------------|
D|----------------------------------------------------------------------|
A|--7---7---7-----7-6---6---6-----6-5---5---5-----5-4---4---4---4-5-----|
E|----7---7---7-7-----6---6---6-6-----5---5---5-5-----4---4---4---------|

then the noisy part
e|----------------------------------------------------------------------|
B|----------------------------------------------------------------------|
G|----------------------------------------------------------------------|
D|--9---9---9-----9-8---8---8-----8-7---7---7-----7-6---6---6---6-7-----|
A|--7-0-7-0-7-0-0-7-8-0-8-0-8-0-0-8-7-0-7-0-7-0-0-7-6-0-6-0-6-0-6-7-----|
E|--7-0-7-0-7-0-0-7-6-0-6-0-6-0-0-6-5-0-5-0-5-0-0-5-4-0-4-0-4-0-4-5-----|

Pls rate this tab...
For comments, email me at puremassacre81@silverchair.nu or txt me.. 09283273282
Comments are appreciated...
Tap to rate this tab
# A B C D E F G H I J K L M N O P Q R S T U V W X Y Z