Guitaretab - guitar tabs
Song name
# A B C D E F G H I J K L M N O P Q R S T U V W X Y Z
Home / C / Cheese / Enes tab

Cheese - Enes tab

Cheese - Enes


Intro
e|--------------------------------------------------------|
B|--------------------------------------------------------|
G|--------------------------------------------------------|
D|--5/6--2-00-3-00-1-00-3/2p0-00----00000-----------------|
A|--5/6--2-00-3-00-1-00-3/2p0-00-3v-00000-----------------|
D|--5/6--2-00-3-00-1-00-3/2p0-00----00000-----------------|
           ..   ..   ..       ..    .....
e|--------------------------------------------------------|
B|--------------------------------------------------------|
G|--------------------------------------------------------|
D|--00-2-00-3-00-1-00-3/2p0-00----00000-------------------|
A|--00-2-00-3-00-1-00-3/2p0-00-3v-00000-------------------|
D|--00-2-00-3-00-1-00-3/2p0-00----00000-------------------|
         ..   ..   ..       ..    .....

Verse1

Daughters of Zion..Beware feel the presence of heaven coming down....
e|-----------------------------------------------|----\\
B|-----------------------------------------------| ---\\
G|-----------------------------------------------|  --\\
D|--0000-0--0-1-2-3-2-0-2-3-2-0-----------------------\\  3x
A|--0000-0--0-1-2-3-2-0-2-3-2-0------------------| //-\\
D|--0000-0--0-1-2-3-2-0-2-3-2-0------------------|//--\\
    ....    . . . . . . . . .

Closer can you feel him coming down?
e|-----------------------------------------------|
B|-----------------------------------------------|
G|-----------------------------------------------|
D|--0000-0--0-1-2-3-2---2h3p2-0------------------|
A|--0000-0--0-1-2-3-2---2h3p2-0------------------|
D|--0000-0--0-1-2-3-2---2h3p2-0------------------|
    ....    . . . . .


Chorus

Makes me wonder....
e|-----------------------------------|
B|-----------------------------------|
G|-----------------------------------|
D|--0--0-5h6p5-8--0-5h6p5-0-5h6p5-0--|
A|--0--0-5h6p5-8--0-5h6p5-0-5h6p5-0--|
D|--0--0-5h6p5-8--0-5h6p5-0-5h6p5-0--|


Verse2

Spinning everything..The hills are down..Man on creation playing god...
e|-----------------------------------------------|----\\
B|-----------------------------------------------| ---\\
G|-----------------------------------------------|  --\\
D|--0000-0--0-1-2-3-2-0-2-3-2-0-----------------------\\  3x
A|--0000-0--0-1-2-3-2-0-2-3-2-0------------------| //-\\
D|--0000-0--0-1-2-3-2-0-2-3-2-0------------------|//--\\
    ....    . . . . . . . . .


Can you feel him coming down?
e|-----------------------------------------------|
B|-----------------------------------------------|
G|-----------------------------------------------|
D|--0000-0--0-1-2-3-2---2h3p2-0------------------|
A|--0000-0--0-1-2-3-2---2h3p2-0------------------|
D|--0000-0--0-1-2-3-2---2h3p2-0------------------|
    ....    . . . . .


Chorus
[ Tab from: http://www.guitaretab.com/c/cheese/53271.html ]
Makes me wonder....
e|-----------------------------------|
B|-----------------------------------|
G|-----------------------------------|
D|--0--0-5h6p5-8--0-5h6p5-0-5h6p5-0--|
A|--0--0-5h6p5-8--0-5h6p5-0-5h6p5-0--|
D|--0--0-5h6p5-8--0-5h6p5-0-5h6p5-0--|


Watch out Back out!
e|-------------------|
B|-------------------|
G|-------------------|
D|--0-5-0-6--2/3-----|
A|--0-5-0-6--2/3-----|
D|--0-5-0-6--2/3-----|


Back to intro....
e|--------------------------------------------------------|
B|--------------------------------------------------------|
G|--------------------------------------------------------|
D|--5/6--2-00-3-00-1-00-3/2p0-00----00000-----------------|
A|--5/6--2-00-3-00-1-00-3/2p0-00-3v-00000-----------------|
D|--5/6--2-00-3-00-1-00-3/2p0-00----00000-----------------|
           ..   ..   ..       ..    .....
e|--------------------------------------------------------|
B|--------------------------------------------------------|
G|--------------------------------------------------------|
D|--00-2-00-3-00-1-00-3/2p0-00----00000-------------------|
A|--00-2-00-3-00-1-00-3/2p0-00-3v-00000-------------------|
D|--00-2-00-3-00-1-00-3/2p0-00----00000-------------------|
         ..   ..   ..       ..    .....

Verse1

Daughters of Zion..Beware feel the presence of heaven coming down....
e|-----------------------------------------------|----\\
B|-----------------------------------------------| ---\\
G|-----------------------------------------------|  --\\
D|--0000-0--0-1-2-3-2-0-2-3-2-0-----------------------\\  3x
A|--0000-0--0-1-2-3-2-0-2-3-2-0------------------| //-\\
D|--0000-0--0-1-2-3-2-0-2-3-2-0------------------|//--\\
    ....    . . . . . . . . .

Closer can you feel him coming down?
e|-----------------------------------------------|
B|-----------------------------------------------|
G|-----------------------------------------------|
D|--0000-0--0-1-2-3-2---2h3p2-0------------------|
A|--0000-0--0-1-2-3-2---2h3p2-0------------------|
D|--0000-0--0-1-2-3-2---2h3p2-0------------------|
    ....    . . . . .


Chorus

Makes me wonder....
e|-----------------------------------|
B|-----------------------------------|
G|-----------------------------------|
D|--0--0-5h6p5-8--0-5h6p5-0-5h6p5-0--|
A|--0--0-5h6p5-8--0-5h6p5-0-5h6p5-0--|
D|--0--0-5h6p5-8--0-5h6p5-0-5h6p5-0--|


Watch out Back out!
e|-------------------|
B|-------------------|
G|-------------------|
D|--0-5-0-6--2/3-----|
A|--0-5-0-6--2/3-----|
D|--0-5-0-6--2/3-----|


Take me away!! Take me away!!
e|------------------------|----\\
B|------------------------| ---\\
G|------------------------|  --\\
D|--2-3-5-3-2h3p2-2/3-2/3------\\  3x
A|--2-3-5-3-2h3p2-2/3-2/3-| //-\\
D|--2-3-5-3-2h3p2-2/3-2/3-|//--\\

e|------------------------|
B|------------------------|
G|------------------------|
D|--2-3-5-3-2h3p2-2/3-2-0-|
A|--2-3-5-3-2h3p2-2/3-2-0-|
D|--2-3-5-3-2h3p2-2/3-2-0-|

un lang po....hmmmm..1st tab ko po 2 eh...sana mags2han nyo....ewan ko kng tama yan..pro 
ang pagkakarinig ko eh...tonohan nyo nlng....xavierxx2@yahoo.com nga pla friendster 
add nyo ko....and for comments =)   \m/ queso pilipinas
Related for Enes tab