Song name
# A B C D E F G H I J K L M N O P Q R S T U V W X Y Z

Cheese - Parusa tab

Standard Tuning
(EADGBe)

Intro:
Play these 4x
e|-------------------|
B|-------------------|
G|-------------------|
D|--4-4-4-4p0-0-4/8--|
A|--2-2-2-2p0-0-2/6--|
E|--2-2-2-2p0-0-2/6--|

then
e|--------------------------------|
B|--------------------------------|
G|--------------------------------|
D|--------------4-10-9------------|
A|--11p0-0-12p0-2-8--7------------|
E|--------------2-8--7-6-5-4-3-2--|

Verse:
Play these 2x
e|-------------------------------|
B|-------------------------------|
G|-------------------------------|
D|-------------------------------|
A|--3p0-0-2p0-0-6p0-0-3p0-0------|
E|-------------------------------|

Then
e|----------|
B|----------|
G|----------|
D|--5-5-5---|
A|--3-3-3---|
E|--3-3-3---|

Repeat the verse 4x then...
e|-------------------------------|
B|-------------------------------|
G|-------------------------------|
D|-------------------------------|
A|--3p0-0-2p0-0-6p0-0------------|
E|-------------------------------|

Chorus:
Guitar 1 Play these 4x
e|-------------|
B|-------------|
G|-------------|
D|--7--10--7---|
A|--7--8---5---|
E|--5--8---5---|

Guitar 2
e|--------------------------------|
B|--------------------------------|
G|--------------------------------|
D|--------------------------------|
A|------------------/12-12-10-10--|
E|--7---7/11--8-7-8---------------|

then...
Play these 4x...
e|-------------------------------|
B|-------------------------------|
G|-------------------------------|
D|--4-4-4-4p0-0-4/8--------------|
A|--2-2-2-2p0-0-2/6--------------|
E|--2-2-2-2p0-0-2/6--------------|

then...
e|--------------------------------|
B|--------------------------------|
G|--------------------------------|
D|--------------4-10-9------------|
A|--11p0-0-12p0-2-8--7------------|
E|--------------2-8--7-6-5-4-3-2--|

Chorus 2:
Play these 4x...
e|-------------------------------|
B|-------------------------------|
G|-------------------------------|
D|--7----10----7-----------------|
A|--7----8-----5-----------------|
E|--5----8-----5-----------------|

Play these 4x...
e|--------------------------------------|
B|--------------------------------------|
G|--------------------------------------|
D|------7-------7-------5----------8----|
A|----7---7---5---5---3---------10------|
E|--5-------5-------3-----5--/8------8--|

then these, play it 8x...
e|-------------------------------|
B|-------------------------------|
G|-------------------------------|
D|-------------------------------|
A|--6-7-0-2-3-0-2-0-2-3----------|
E|-------------------------------|

Play these 4x...
e|-------------------------------|
B|-------------------------------|
G|-------------------------------|
D|--8-9-0-4-5-0-4-0-4-5----------|
A|--6-7-0-2-3-0-2-0-2-3----------|
E|--6-7-0-2-3-0-2-0-2-3----------|

Solo:
e|---------------------------------|
B|---------------------------------|
G|---------------------------------|
D|--10-10-10/12-12-12/9-9-9/10-10--|
A|---x--x--x/-x--x--x/x-x-x/-x--x--|
E|---8--8--8/10-10-10/7-7-7/-8--8--|

e|------------------------------------|
B|------------------------------------|
G|------------------------------------|
D|--10-10-10/12-12-12/15-15-15/14-14--|
A|---x--x--x/-x--x--x/-x--x--x/-x--x--|
E|---8--8--8/10-10-10/13-13-13/12-12--|

e|---------------------------------|
B|---------------------------------|
G|---------------------------------|
D|--10-10-10/12-12-12/9-9-9/10-10--|
A|---x--x--x/-x--x--x/x-x-x/-x--x--|
E|---8--8--8/10-10-10/7-7-7/-8--8--|

e|----------------------------------------|
B|----------------------------------------|
G|----------------------------------------|
D|--10/12-12-12/15-15-15/14-14-14/17-17---|
A|---x/-x--x--x/-x--x--x/-x--x--x/-x--x---|
E|---8/10-10-10/13-13-13/12-12-12/15-15---|

e|-----|
B|-----|
G|-----|
D|--4--|
A|--2--|
E|--2--|


Pls rate this tab...
For comments, email me at puremassacre81@silverchair.nu or txt me.. 09283273282
Comments are appreciated...
Tap to rate this tab
# A B C D E F G H I J K L M N O P Q R S T U V W X Y Z