Song name
# A B C D E F G H I J K L M N O P Q R S T U V W X Y Z

Cheese - Few Seconds Of Pain tab

Help us improve GuitareTab! Take a short survey!
                 FEW SECONDS OF PAIN BY:CHEESE(KESO)
                     transcribed by:freongang
                visit me at:freongang_81@yahoo.com
                     freongang_08@yahoo.com

dropped D
intro:                  X2
D|-----  ----------------------------------------|
A|--15-  ----------------------------------------|
F|--14-  ----------------------------------------|
C|-----  -3-3----2h3-----2h3---2h3-----2h3---3-3-|
G|-----  -3-3--x-----x-x-----x-----x-x-------3-3-|
D|-----  -1-1--------------------------------1-1-|

     Both I said... (fast tune) X8
D|----------------------------------|
A|----------------------------------|
F|----------------------------------|
C|--2-2-3/4--3-3-4------------------|
G|--2-2-3/4--3-3-4------------------|
D|--0-0-1/2--1-1-2------------------|

              X8
D|------------------------------|
A|------------------------------|
F|------------------------------|
C|---5-6--5-5-6-----------------|
G|---5-6--5-5-6-----------------|
D|---3-4--3-3-4-----------------|

             X4
D|------------------------------|
A|------------------------------|
F|------------------------------|
C|--------------4-3-------------|
G|--------------4-3-------------|
D|--2h1-2h1-2h1-2-1-------------|
   JUST FOLLOW THE SEQUENCE<<<>>>
Related for Few Seconds Of Pain tab