Song name
# A B C D E F G H I J K L M N O P Q R S T U V W X Y Z

Cheese - Trilogy tab

          
                      TRILOGY BY:CHEESE(KESO)
                     transcribed by:freongang
                visit me at:freongang_81@yahoo.com
                      freongang_08@yahoo.com

dropped D
intro:      trilogy!!!     (as many times)
D|---------------------------------------------------|
A|---------------------------------------------------|
F|---------------------------------------------------|
C|-5h4-3-2---5h4-3-2--5h4--5h4-3-2--5h4-3-2--5h4-----|
G|---------------------------------------------------|
D|---------------------------------------------------|

   The waste of my pride...  X2
D|-------------------------------------------|
A|-------------------------------------------|
F|-------------------------------------------|
C|-2-3-5-5---2-3-4-4---2-3-5-5---2-3-4-4-----|
G|-2-3-5-5---2-3-4-4---2-3-5-5---2-3-4-4-----|
D|-0-0-3-3---0-0-2-2---0-0-3-3---0-0-2-2-----|

 Cancel off my life... (bass riffs)
D|------------------------|
A|------------------------|
F|------------------------|
C|------------------------|
G|----0-1---3-4-----------|
D|--3---------------------|

D|---------------------------------------------------|
A|---------------------------------------------------|
F|---------------------------------------------------|
C|-5h4-3-2---5h4-3-2--5h4--5h4-3-2--5h4-3-2--5h4-----|
G|---------------------------------------------------|
D|---------------------------------------------------|

D|-------------------------------------------|
A|-------------------------------------------|
F|-------------------------------------------|
C|-2-3-5-5---2-3-4-4---2-3-5-5---2-3-4-4-----|
G|-2-3-5-5---2-3-4-4---2-3-5-5---2-3-4-4-----|
D|-0-0-3-3---0-0-2-2---0-0-3-3---0-0-2-2-----|
   Just follow the sequence<<<>>>
Tap to rate this tab
# A B C D E F G H I J K L M N O P Q R S T U V W X Y Z