Song name
# A B C D E F G H I J K L M N O P Q R S T U V W X Y Z

Cheese - Hele tab

Help us improve GuitareTab! Take a short survey!
Standard Tuning
(EADGBe)

intro: play these 3x
e|----------------------------|
B|----------------------------|
G|----------------------------|
D|--3-3-3/5-5-0h5-5-0h5-5-----|
A|--4-4-4/6-6-0h3-3-0h3-3-----|
E|--4-4-4/6-6-0h3-3-0h3-3-----|

then
e|------------------|
B|------------------|
G|------------------|
D|--3-3-3/5-5--5----|
A|--4-4-4/6-6--3----|
E|--4-4-4/6-6--3----|

verse:
play these 2x
e|-------------------------------------------------------|
B|-------------------------------------------------------|
G|-------------------------------------------------------|
D|--3-3-----------5-5-----------3-3-3-5-5-5-5-5-5-5------|
A|--3-3---2-2h3-2-3-3---3-3h4-3-4-4-4-6-6-6-5-5-5-5------|
E|--1-1-3---------3-3-4---------4-4-4-6-6-6-3-3-3-3------|

play these 3x
e|-------------------------|
B|-------------------------|
G|-------------------------|
D|--3-3-3/5-5-0h5-5-0h5-5--|
A|--4-4-4/6-6-0h3-3-0h3-3--|
E|--4-4-4/6-6-0h3-3-0h3-3--|

e|-------------------------|
B|-------------------------|
G|-------------------------|
D|--3-3-3/5-5--------------|
A|--4-4-4/6-6--------------|
E|--4-4-4/6-6--------------|

pre-chorus:
e|-------------------------|  e|------------------------------------|
B|-------------------------|  B|------------------------------------|
G|-------------------------|  G|------------------------------------|
D|--6-6-6-6-6--------------|  D|------------------------------------|
A|--7-7-7-7-7--------------|  A|----/9--------/12----/7------/7-----|
E|--7-7-7-7-7--------------|  E|--7-------/10------/5------/4-------|

play these 4x
e|-------------------------|
B|-------------------------|
G|-------------------------|
D|--0h4-4-3-3-0h4-4-2-2----|
A|--0h2-2-3-3-0h2-2-2-2----|
E|--0h2-2-1-1-0h2-2-0-0----|

chorus:
e|----------------------------------------------------|
B|----------------------------------------------------|
G|----------------------------------------------------|
D|--5-5-7-7-5-5-5-5--11-11-13-13-3-3-3/6-6-6/4-4-4----|
A|--6-6-8-8-5-5-5-5--11-11-13-13-3-3-3/6-6-6/4-4-4----|
E|--6-6-8-8-3-3-3-3--9--9--11-11-1-1-1/4-4-4/2-2-2----|

repeat these with minor variation lng poh...
just figure it out kc nakakapagod magtab eh...

Pls rate this tab...
For comments, email me at puremassacre81@silverchair.nu or txt me.. 09283273282
Comments are appreciated...
Related for Hele tab