Song name
# A B C D E F G H I J K L M N O P Q R S T U V W X Y Z

Cheese - Guido tab

Standard Tuning
(EADGBe)

(#)- harmonic
h  - hammer-on 

Intro:
Play these 4x...
e|---------------------------------------------------|
B|--13-13-13-12-12-13-13-13-12-12--------------------|
G|--10-10-10-10-10-10-10-10-10-10--------------------|
D|--10-10-10-10-10-10-10-10-10-10--------------------|
A|---------------------------------------------------|
E|---------------------------------------------------|

then.. Play these 4x...
e|-------------------------------------|
B|-------------------------------------|
G|-----------------break---------------|
D|--5-4-5-4-5-0------------------------|
A|--3-4-3-4-3-0------------------------|
E|--3-2-3-2-3-0------------------------|

Verse
Play these 
e|---------------------------------------------------------------------------|
B|---------------------------------------------------------------------------|
G|--(5)-------------------------------------------------------------(5)------|
D|-------0-3-4-0--3--0-3-4-0-(5)-(5)-(5)----0-3-4-0--3--0-3-4-0-(5)-----(5)--|
A|-------0-3-4-0--3--0-3-4-0----------------0-3-4-0--3--0-3-4-0--------------|
E|-------0-3-4-0--3--0-3-4-0----------------0-3-4-0--3--0-3-4-0--------------|
       pm-------------------           pm----------------------

Then...
Pre-Chorus
e|----------------------------------------------|
B|----------------------------------------------|
G|----------------------------------------------|
D|--0-3-4-0--3----0-3-4-0--3----0-3-4-0---------|
A|--0-3-4-0--3----0-3-4-0--3----0-3-4-0---------|
E|--0-3-4-0--3----0-3-4-0--3----0-3-4-0---------|
  pm-------    pm--------     pm-----

Chorus
Play these 4x                      Then...
e|-------------------------------|---------------|
B|-------------------------------|---------------|
G|-------------------------------|---------------|
D|--0-3-4-0-3-0-3----------------|--0-3-4-0-3-4--|
A|--0-3-4-0-3-0-3----------------|--0-3-4-0-3-4--|
E|--0-3-4-0-3-0-3----------------|--0-3-4-0-3-4--|
  pm-----------                   pm-----------
                  
Then 3x...
e|-------------------------------------|---------------------------------|
B|-------------------------------------|---------------------------------|
G|-------------------------------------|---------------------------------|
D|----------3----------3--0-3-4-0------|----------3----------3--0-0-0----|
A|----------3----------3--0-3-4-0------|----------3----------3--0-0-0----|
E|--0-3h4-0-3--0-3h4-0-3--0-3-4-0------|--0-3h4-0-3--0-3h4-0-3--0-0-0----|
                        pm-------                             

Bridge
e|-----------------------------------|
B|-----------------------------------|
G|-----------------------------------|
D|--0-----3-----0-----3--------------|
A|--0-----3-----0-----3--------------|
E|--0-----3-----0-----3--------------|

Listen to the cds for the exact timing...
e|-------------------------------------------------------------------|
B|-------------------------------------------------------------------|
G|-------------------------------------------------------------------|
D|-------------------------------------------------------------------|
A|-------------------------------------------------------------------|
E|--3/5-5-5-5-5-5-5--5/8-8-8-8-8/10--10/5-5-5-5-5--5/3-3-3-3---------|

e|---------------------------------------------------------------------------------------|
B|---------------------------------------------------------------------------------------|
G|---------------------------------------------------------------------------------------|
D|---------------------------------------------------------------------------------------|
A|---------------------------------------------------------------------------------------|
E|--3/5-5-5-5--5/10-10/9-9--9/8-8-8--8/10-10/9-9-9--9/5-5-5-5--5/10-10-10/9-9--9/3-------|


Pls rate this tab...
For comments, email me at puremassacre81@silverchair.nu or txt me.. 09283273282
Comments are appreciated...
Tap to rate this tab
# A B C D E F G H I J K L M N O P Q R S T U V W X Y Z