Song name
# A B C D E F G H I J K L M N O P Q R S T U V W X Y Z

Cheesedogs - Before Now tab

Cheesedogs,  BEFORE NOW.
 Tabbed by Joe FRanklin  Crate9@aol.com.
  
Before Now
Cheesedogs


Intro
------------------------------------------------------
------------------------------------------------------
------------------------------------------------------
------------------------------------------------------
-----------------10-10-10-10-10-10-10-10-8-8-8-8-8-8-8
-9-9-9-9-9-9-9-9--------------------------------------

------------------------------------------------------------------------------------------------------------------------------------------------------------------------------------------------------------------------
-8-8-8-8-8-8-8-8-8------------------------------------
------------------------------------------------------
play throughout the whole song

Solo
-------------------------------------------------------12-11-10-12-11-10-12-11-10-12-11-10-12-11-10---------------------------------------------------------------------------------------------------------------------------------------------------------------------------------------------------------------------------------
You play that really fast

Thats the whole tab and it is 100% correct 
:: Ultimate Guitar Archive :: 
http://www.ultimate-guitar.com 



Tap to rate this tab
# A B C D E F G H I J K L M N O P Q R S T U V W X Y Z