Song name
# A B C D E F G H I J K L M N O P Q R S T U V W X Y Z

Cheesedogs - Toxis Mold tab

Cheesedogs    Toxic Mold.
 Tabbed by Crate9@aol.com.
  
Cheesedogs
Toxic Mold
Tabbed by: Frank Slomka


Intro
-----------------------------------------------------
-----------------------------------------------------
-6-6-6-6---------6-6-6-6-----------------------------
-6-6-6-6-7-7-7-7-6-6-6-6-9-9-9-9---------------------
-4-4-4-4-7-7-7-7-4-4-4-4-9-9-9-9---------------------
---------5-5-5-5---------7-7-7-7---------------------


Chorus
------------------------------------------------------------------------------------------------------------
-6-6-x-x---------6-6-x-x-9-9-x-x-6-6-x-x-----6-6-x-x-
-6-6-x-x-7-7-x-x-6-6-x-x-9-9-x-x-6-6-x-x-7-7-6-6-x-x-9
-4-4-x-x-7-7-x-x-4-4-x-x-7-7-x-x-4-4-x-x-7-7-4-4-x-x-9
---------5-5-x-x-------------------------5-5---------7

That is the exact way to play it. 
:: Ultimate Guitar Archive :: 
http://www.ultimate-guitar.com 



Tap to rate this tab
# A B C D E F G H I J K L M N O P Q R S T U V W X Y Z