Song name
# A B C D E F G H I J K L M N O P Q R S T U V W X Y Z

Chef Special - Colors tab

Chef' special: Colors:


(/) Slide Up  (\) Slide Down  (h) Hammer On  (p) Pull Off  (b) Bend (r) Release (v) Vibrato

Main riff: intro riff and chrous riff:
E|--------------------------------------------------------------------|
B|-----7h8--------2----------------------7h8--------2-----------------|
G|----------7--------2------------------------7--------2--------------|
D|--9----------9--------2--7h9--7v----9----------9--------2--9--7--7--|
A|--------------------------------------------------------------------|
E|--------------------------------------------------------------------|



E|-----------------------------------------------------------------------|
B|-----7h8--------2------------------------7h8--------2------------------|
G|----------7--------2--------------------------7--------2---------------|
D|--9----------9--------2--7h9--7----9-------------9--------2--7h9--7h9--|
A|-----------------------------------------------------------------------|
E|-----------------------------------------------------------------------|

0:22:
After the main riff: Bridge: Guitarist plays a few Bm chords together with the bass and 
the keys.

0:25:
Only bass/keyboard part but those two play Bm and A Chords and notes.

0:36:
There is a guitar riff at this part:
E|-----------------------------------------------|
B|-----------------------------------------------|
G|-----6--7-------6--7-------6--7--9--7--6-------| Repeat 2 times.
D|--9--------9----------9-------------------9----|
A|-----------------------------------------------|
E|-----------------------------------------------|

0:47:
And a note-bend-guitarpart:


E|---------------------------|
B|--7~~~~~~5~~~~7-----8------| Repeat 4 times.
G|--9b11~~~7b9~~9b11--10b12--|
D|---------------------------|
A|---------------------------|
E|---------------------------|

And then the song will go over into the chorus where the main guitar riff is.

Bridge

Chorus

And then there is a part that starts out as the bridge but has different chords @ 2:35:

Bm, bm bm bm bm, bm bm bm A, A A A-A-F#, F#-G-D-A-BM Repeat another time.

Then:

@ 2:58: There is a variation at the last chord, instead of a BM you'll end with a F#:

Bm, bm bm bm bm, bm bm bm A, A A A-A-F#, F#-G-D-A-F#-F#-F#



3:10:

Main guitar riff together with vocals and after the riff @3:20 the rest of the 
instruments join in.


3:41: Guitar solo. Haven't  tabbed the solo out yet. The solo is in Bm.

The chords for the solo are basically the one's you use @ 2:35:

Bm, bm bm bm bm, bm bm bm A, A A A-A-F#, F#-G-D-A-BM Repeat this progression 3 times end 
end with this chord progression:

Bm, bm bm bm bm, bm bm bm A, A A A-A-F#, F#-G-D-A-F#-F#-F#

Finishing chord: Bm.

Isnt a hard song at all only the solo can be tricky ;-).

Tabbed by: Jim Velthuis
Tap to rate this tab
# A B C D E F G H I J K L M N O P Q R S T U V W X Y Z