Song name
# A B C D E F G H I J K L M N O P Q R S T U V W X Y Z

Chefspecail - Peculiar tab

There are two ways how you can play this. I personally find the second easiest way.


 e  ------------------------------------------------------------|
 b  ---7--7--7--5--------5--7-----7--7--7--7--8--7--5-----------|
 g  ---------------7--7--------------------------------7--------|
 d  ---------------------------7--------------------------------|
 a  ------------------------------------------------------------|
 E  ------------------------------------------------------------|


 e  ------------------------------------------------------------|
 b  ---7--7--7--------------7-----7--7--7--7--8-----------------|
 g  ------------9--7--7--9-----------------------9--7-----------|
 d  ---------------------------7--------------------------------|
 a  ------------------------------------------------------------|
 E  ------------------------------------------------------------|


http://www.mijnbestand.nl/Bestand-DECTCTHRGKBR.jpg in sibelius
Tap to rate this tab
# A B C D E F G H I J K L M N O P Q R S T U V W X Y Z