Song name
# A B C D E F G H I J K L M N O P Q R S T U V W X Y Z

Chefspecial - In Your Arms tab

In your arms - Chef'Special

Capo on 3rd.
----------------

Intro/verse
E-----2-------2------2-----2--------|
B-----3-------3------3-----3--------|
G-----2-------3------2-----3--------|
D-----0-------0------0-----x--------|        x3
A--------------------x-----1--------|
E--------------------3--------------|

pre-chords
E-----2-------0-------2------2-----------------|
B-----3-------2-------3------3-----------------|
G-----2-------2-------2------2-----------------|         x3
D-----0-------2-------0------0-----------------|
A-------------0-------x------x-----------------|
E---------------------3------3-----------------|

pre-chords
E----10--------------8-----8-------8---------------|
B----11--------------8-----8-------8---------------|
G----12--------------9-----10------9---------------|    x2
D----12-------------10-----10------10--------------|
A----10-------------10------x------10--------------|
E--------------------8------8-------8--------------|

chords
E-----2-------0-------2------2-----------------------|
B-----3-------2-------3------3-----------------------|
G-----2-------2-------2------2-----------------------|
D-----0-------2-------0------0-----------------------|               x4
A-------------0-------x------x-----------------------|
E---------------------3------3-----------------------|

This is my first tab. Tips are welcome!
Greets,
Berend Adan
Tap to rate this tab
# A B C D E F G H I J K L M N O P Q R S T U V W X Y Z