Song name
# A B C D E F G H I J K L M N O P Q R S T U V W X Y Z

Chelsea Grin - Recreant tab

www.myspace.com/chelseagrinmetal


Recreant
Drop A

P-Pinch Harmonic

Begining x2 (stereo)
Riff 1 x8 (2nd and 5th time end a little early)
Tremelo 1 x 4
Riff 2 x 4
Transition 1
Riff 3 x 4
Riff 4 x 2
Riff 5 x 3
Riff 6
Riff 7 x 4
Tremelo 1 x 4
Riff 2 x 4
Riff 8 x 8

Begining*
------------------------------|
------------------------------|
------------------------------|
------------------------------|
------------------------------|
------------------0-----------|
-2-1-0-2-1-0-2-1----2-1-2-1-0-|

Riff 1
-----------------------------|
-----------------------------|
-----------------------------|
-----------------------------|
-2-1-0-2-1-0-2-1-0-2-1-2-1-0-|
-1-0-0-1-0-0-1-0-0-1-0-1-0-0-|
-2-1-0-2-1-0-2-1---2-1-2-1-0-|

Tremelo 1
-------------------------------------------------------------------|
-------------------------------------------------------------------|
-------------------------------------------------------------------|
-------------------------------------------------------------------|
---------------------------------------------------------0-5-2-1-2-|
---5-4---5-4---4---5-4--------------5-4---5-4---4---5-4--0-5-2-1-2-|
-0-----0-----3---0------0-5-2-1-2-0-----0-----3---0------0-5-2-1-2-|

Riff 2
Guitar 1
----------------------------------|
----------------------------------|
----------------------------------|
---7-6---7-6---6---7-6------------|
------------------------0-5-2-1---|
-0-5-4-0-5-4-3-4-0-5-4--0-5-2-1---|
-0-----0-----3---0------0-5-2-1-3-|
                                P
Gutiar 2
----------------------------------|
----------------------------------|
----------------------------------|
----------------------------------|
-0-----------0-0-0-0------0-0-0-1-|
-0-----------0-0-0-0------0-0-0-1-|
-0-----------0-0-0-0------0-0-0-1-|

Transition 1
-------------------------------------|
-------------------------------------|
-------------------------------------|
-------------------------------------|
-1-0-0-0-1-0-0-0-1-0-0-0-1-4-3-1---0-|
-1-0-0-0-1-0-0-0-1-0-0-0-1-4-3-1-3-0-|
-1-0-0-0-1-0-0-0-1-0-0-0-1-4-3-1---0-|
                                 P
Riff 3
--------------------------------------|
--------------------------------------|
--------------------------------------|
--------------------------------------|
-0---0-0-0-0-0-0----0-0-0-0---0-0-0-0-|
-0---0-0-0-0-0-0----0-0-0-0---0-0-0-0-|
-0---0-0-0-0-0-0----0-0-0-0---0-0-0-0-|

Riff 4
--------------------------------------|
--------------------------------------|
--------------------------------------|
--------------------------------------|
-1---1-1-1-1-1-1----1-1-1-1---1-1-1-1-|
-0---0-0-0-0-0-0----0-0-0-0---0-0-0-0-|
-1---1-1-1-1-1-1----1-1-1-1---1-1-1-1-|

--------------------------------------|
--------------------------------------|
--------------------------------------|
--------------------------------------|
-1---1-1-1-1-1-1----1-1-1-1-1-1-1-1-1-|
-0---0-0-0-0-0-0----0-0-0-0-0-0-0-0-0-|
-1---1-1-1-1-1-1----1-1-1-1-1-1-1-1-1-|

Riff 5
----------------|
----------------|
----------------|
----------------|
-0--------0-0-0-|
-0--------0-0-0-|
-0--------0-0-0-|

Riff 6
-----------------------------------|
-----------------------------------|
-----------------------------------|
-----------------------------------|
-0-0-0-0-0-0-0-0-0-0-0-0-0-0-0-0-0-|
-0-0-0-0-0-0-0-0-0-0-0-0-0-0-0-0-0-|
-0-0-0-0-0-0-0-0-0-0-0-0-0-0-0-0-0-|

Riff 7
------------------------------------------------------------------|
------------------------------------------------------------------|
------------------------------------------------------------------|
------------------------------------------------------------------|
-0---0-0-0--0-0--0-0---0-0-0-0-0-0--0--0-0--1--1-1--1-1-1-1-1-1-1-|
-0---0-0-0--0-0--0-0---0-0-0-0-0-0--0--0-0--1--1-1--1-1-1-1-1-1-1-|
-0---0-0-0--0-0--0-0---0-0-0-0-0-0--0--0-0--1--1-1--1-1-1-1-1-1-1-|

Riff 8
-----------------|
-----------------|
-----------------|
-----------------|
-2-2-2---2-2-2-0-|
-1-1-1---1-1-1-0-|
-2-2-2---2-2-2-0-|
Tap to rate this tab
# A B C D E F G H I J K L M N O P Q R S T U V W X Y Z