Song name
# A B C D E F G H I J K L M N O P Q R S T U V W X Y Z

Chelsea Grin - Cheyne Stokes tab

Song: Cheyne Stokes
Artist: Chelsea Grin
Tuning: A Standard - AEADGBE

Tabbed by Matt Mulartschuk, error corrected by Michael Stafford of Chelsea Grin

This is 100% correct, I had a pretty close version, but I spoke to Michael who helped me 
the inconsistencies!
Hes a sick dude, support Chelsea Grin by buying their EP and if you're lucky enough to 
close by, go to their shows and mosh like crazy.

Here is my cover of this awesome song: http://www.youtube.com/watch?v=aG0ssVU_9h4

Tab legend:
h - hammer on
p - pull off
[x] - pinch harmonic
" - tremolo pick
* - palm mute


0.00 - 0.07
|-----------------------------------------------------------------|
|-----------------------------------------------------------------|
|-----------------------------------------------------------------|
|-----------------------------------------------------------------|
|-----------3-----------------------------------------------------|
|--0-3-2-1--3--[5]---0-3-2-1-0---3-2-1-0----0-3-2-1-0---3-2-1-0---|
|--0-3-2-1-----------0-3-2-1-0---3-2-1-0----0-3-2-1-0---3-2-1-0---|
   * * * *           * * * * *   * * * *    * * * * *   * * * *

0.08 - 0.15
|---------------------------------------------------------|
|---------------------------------------------------------|
|---------------------------------------------------------|
|---------------------------------------------------------|
|-------------0"-----------1"-----------0"-----------1"---|
|--0-3-2-1-0------3-2-1-0------3-2-1-0------3-2-1-0-------|
|--0-3-2-1-0------3-2-1-0------3-2-1-0------3-2-1-0-------|
   * * * * *      * * * *      * * * *      * * * *

0.16 - 0.19
|------------------------------------------------|
|------------------------------------------------|
|------------------------------------------------|
|------------------------------------------------|
|--2-2-2-----------------------------------------|
|--1-1-1--00-00-0--[3]----000-0-00-00-00--[2]----|
|--2-2-2--00-00-0---------000-0-00-00-00------3--|
   * * *  ** ** *         *** * ** ** **

0.20 - 0.33
|----------------------------------------|
|----------------------------------------|
|----------------------------------------|
|----------------------------------------|
|--------4"-3"---------------------------|
|--000---5"-4"---0-6--5-3-0-1-3-1--[3]---|
|--000-----------0-6--5-3-0-1-3-1--------|
   ***           * *  * * * * * *

0.34 - 0.46
|-----------------------------------------------------------------------|
|-----------------------------------------------------------------------|
|-----------------------------------------------------------------------|
|-----------------------------------------------------------------------|
|-----------------------------------------------------------------------|
|-----------------------------------------------------------------------|
|--000-000-[3]--0-0-0-000-000-000-000--000-000-[3]-0-0-0--0"-4"-3"-1"---|
   *** ***      * * * *** *** *** ***  *** ***     * * *

0.47 - 1.16
|---------------|
|---------------|
|---------------|
|---------------|
|---------------|
|-0-0--000-0-0--|
|-0-0--000-0-0--|
  * *   ** * *

1.05 - 1.16
|----------------13h17p13----------------17p13----------13-18p15----------15---|
|-------------15----------15-------------------15----15----------17----17------|
|----------14----------------14-------------------14----------------18---------|
|-------15----------------------15---------------------------------------------|
|-12h17----------------------------17------------------------------------------|
|------------------------------------------------------------------------------|
|------------------------------------------------------------------------------|

|----------------13h17p13----------------17p13----------13-18p15----------15h17|
|-------------15----------15-------------------15----15----------17----17------|
|----------14----------------14-------------------14----------------18---------|
|-------15----------------------15---------------------------------------------|
|-12h17----------------------------17------------------------------------------|
|------------------------------------------------------------------------------|
|------------------------------------------------------------------------------|

Sweeping Harmony:
|----------------10h13p10----------------13p10----------10-15p12----------12---|
|-------------11----------11-------------------11----11----------14----14------|
|----------10----------------10-------------------10----------------15---------|
|-------12----------------------12---------------------------------------------|
|-10h13----------------------------13------------------------------------------|
|------------------------------------------------------------------------------|
|------------------------------------------------------------------------------|

|----------------10h13p10----------------13p10----------10-15p12----------12h13|
|-------------11----------11-------------------11----11----------14----14------|
|----------10----------------10-------------------10----------------15---------|
|-------12----------------------12---------------------------------------------|
|-10h13----------------------------13------------------------------------------|
|------------------------------------------------------------------------------|
|------------------------------------------------------------------------------|


1.20 - 1.26
|-------------------------------------------------------|
|-------------------------------------------------------|
|-------------------------------------------------------|
|-------------------------------------------------------|
|----------------------2"-------------------------------|
|------0"-3"-0"----4"-----------0"-3"-0"----4"--0-3-2-1-|
|---0"----------3"----------0"-----------3"-----0-3-2-1-|
    *                       *                   * * * *

1.27 - 1.44
|--------------------------------------------------|
|--------------------------------------------------|
|--------------------------------------------------|
|--------------------------------------------------|
|----------------------2"--------------------------|
|------0"-3"-0"----4"-----------0"-3"-0"----4"-----|
|---0"----------3"----------0"-----------3"----2"--|
    *                       *

1.45 - 1.50
|-------------------------------------------------------|
|-------------------------------------------------------|
|-------------------------------------------------------|
|-------------------------------------------------------|
|----------------------2"-------------------------------|
|------0"-3"-0"----4"-----------0"-3"-0"----4"--0-3-2-1-|
|---0"----------3"----------0"-----------3"-----0-3-2-1-|
    *                       *                   * * * *

1.51 - 2.04
|-------------------------------|
|-------------------------------|
|-------------------------------|
|-------------------------------|
|-------------------------------|
|-----------------------00-00---|
|--0-2-3-00-1-4-0-3--x4-00-00---|
                        ** **

"GOD CAN'T SHOW YOU WHERE TO HIDE!"


2.05 - 2.12
|----------------------------------------|
|----------------------------------------|
|----------------------------------------|
|----------------------------------------|
|----------------------------------------|
|---000-000--0-000----000-000-0-000------|
|---000-000--0-000----000-000-0-000------|
    *** ***  * ***    *** *** * ***

2.13 - 2.30
|-------------------------------------------------------|
|-------------------------------------------------------|
|-------------------------------------------------------|
|-------------------------------------------------------|
|-------------------------------------------------------|
|--000-000--0-000----000-000-0-000----------------------|
|--000-000--0-000----000-000-0-000---0-2-3-00-1-4-0-3---|
   *** ***  * ***    *** *** * ***

2.31 - END.
|--------------------|
|--------------------|
|--------------------|
|--------------------|
|------------3-------|
|---0-3-2-1--3--[5]--|
|---0-3-2-1----------|
    * * * *
Tap to rate this tab
# A B C D E F G H I J K L M N O P Q R S T U V W X Y Z