Song name
# A B C D E F G H I J K L M N O P Q R S T U V W X Y Z

Chelsea Grin - Elysium tab

This is my first tab ever. I did it by ear and its not too shabby. lol It's about 99% 
and I hope it helps. Tuning is in drop A.

PLEASE NOTE- This was tabbed for a 6-string guitar. Not a 7-string like the actual band 
Sorry about that it you're a 7-string player. 6-strings are cooler anyways.
You suck.

|-16h17p16-------------------------16h17p16-------------------16/20---20/16h17p16--------------|
|----------17-19-14-------------------------17-19-14------------------------------17-16----17b-|
|----------------------19-------------------------------19------------------------------17-----|
|-------------------18----18-17-18-------------------18----18----------------------------------|
|----------------------------------------------------------------------------------------------|
|----------------------------------------------------------------------------------------------|


|----------------16/20\16-15------------------------------------------|
|----------------------------17---------------------------------------|
|-18p16-------------------------16-17---------------------------------|
|-------19-18-19----------------------19--18--18h19p18----------18-19-|
|------------------------------------------------------19-16-19-------|
|---------------------------------------------------------------------|


|-17p16-----------17p16--------------17p16---------------------------------------|
|-------17--------------17-----------------17------------------------------------|
|----------16/18-----------16/18\16-----------16/18\16-14--13--13h14p13----------|
|-----------------------------------------------------------------------14----14-|  X2
|--------------------------------------------------------------------------15----|
|--------------------------------------------------------------------------------|


|--------------------------------------------------------------------------|
|--------------------------------------------------------------------------|
|--------------------------------------------------------------------------|
|-14/18---14-18-16--13h14p13----------14--/18------13h14p13----------------|
|----------------------------14-11-14---------18------------14-11-14/18-16-|
|--------------------------------------------------------------------------|
Tap to rate this tab
# A B C D E F G H I J K L M N O P Q R S T U V W X Y Z