Song name
# A B C D E F G H I J K L M N O P Q R S T U V W X Y Z

Chelsea Grin - The Human Condition tab

Intro to:

The Human Condition-Chelsea Grin

Tabbed by Jaredh_d2012

Tuning:AEADGBE

Into Pt. 1.(Slow intro)

E|8-5-----------5-8-5---------8-5---4-7----------4-7-4----------|
B|----5-------5-------5------5----------------------------------|
G|------5---5-----------5---5-----------4-7---7-4-----4-7---7-4-|
D|--------7---------------7-----------------6-------------6-----|
A|--------------------------------------------------------------|
E|--------------------------------------------------------------|
A|--------------------------------------------------------------|


E|8-5-----------5-8-5---------8-5---10-7------------10-7-10------------|
B|----5-------5-------5------5-----------------------------------------|
G|------5---5-----------5---5-----------10-7---10-7--------10-7--------|
D|--------7---------------7------------------9------------------9~~~~~~|
A|---------------------------------------------------------------------|
E|---------------------------------------------------------------------|
A|---------------------------------------------------------------------|
 |Harmony
E|8-5-----------5-8-5---------8-5----4-7-------------4--7--4-----------|
B|----5-------5-------5------5-----------------------------------------|
G|------5---5-----------5---5------------4--7---7--4--------4--7-------|
D|--------7---------------7-------------------6-----------------6-~~~~~|
A|---------------------------------------------------------------------|
E|---------------------------------------------------------------------|
A|---------------------------------------------------------------------|



Intro Pt. 2. (The Faster part)

E|85-----5--85-5----85-----585-----5-7p4-------4---7p4-4----7p4-------4h7p4-------4---|
B|--5---5-5---5-5-----5---5---5---5---------------------------------------------------|
G|---5-5---5-----5-----5-5-----5-5------7p4-4h7-7p4---7-7p4----7p4-4h7-----7p4-4h7----|
D|----7-----------------7-------7----------6----------------------6-----------6-------|
A|------------------------------------------------------------------------------------|
E|------------------------------------------------------------------------------------|
A|------------------------------------------------------------------------------------|


E|85-----5--85-5----85-----585-----5-10p7---------7----10p7--7----7p4----------7h10p7---------7|
B|--5---5-5---5-5-----5---5---5---5------------------------------------------------------------|
G|---5-5---5-----5-----5-5-----5-5-------10p7-7h10-10p7----10-10p7----10p7-7h10------10p7-7h10-|
D|----7-----------------7-------7------------9----------------------------9--------------9-----|
A|---------------------------------------------------------------------------------------------|
E|---------------------------------------------------------------------------------------------|
A|---------------------------------------------------------------------------------------------|X2
Tap to rate this tab
 
# A B C D E F G H I J K L M N O P Q R S T U V W X Y Z