Chelsea Grin - Elysium tab

For all those people who didn't have guitar pro, and/or didn't have a 7 string.
I'm almost positive it is correct. Please correct me if I am wrong.

Enjoy.

Intro/Main riff:

|--------------5--------5--------5--------------|
|-------8---------8--------8--------8-----------|
|--------------------5--------------------------|
|----7-----7------------------7--------7--------|
|-----------------------------------------------|
|-----------------------------------------------|

|----------------7-------------7---------7---------------|
|---------8---------8-------------8---------8------------|
|--7-----------------------------------------------------|
|-----10-----10--------10--10--------10--------10-10-10--|
|--------------------------------------------------------|
|--------------------------------------------------------|

Solo:

|----17b19b17-------------------------17b19b17-----------------15s20-20~---17h18p17---------|
|------------18--20-15----17------------------18--20-15---17----------------------18--/20~--|
|------------------------14--14-15-17--------------------14--14----------------------17-----|
|-------------------------------------------------------------------------------------------|
|-------------------------------------------------------------------------------------------|
|-------------------------------------------------------------------------------------------|

|-----------------18s20-18-17-------------------------------------------|
|-18p17---------------------18~-----------------------------------------|
|--------15-14-15----------------17/19\17-15--14--15-14--------14h15----|
|-------------------------------------------------------15---15---------|
|----------------------------------------------------------17-----------|
|-----------------------------------------------------------------------|

|-18p17---------18p17------------18p17------------------------------------|
|-----18------------18---------------18-----------------------------------|
|--------17s19~--------17/19\17~--------17/19\17-15~--14h15p14------------|
|--------------------------------------------------------------15--15~----|
|----------------------------------------------------------------17-------|
|-------------------------------------------------------------------------|

|-18p17---------18p17------------18p17--------------------------------------------------|
|-----18------------18---------------18-------------------------------------------------|
|--------17s19~--------17/19\17~--------17/19\17-15~--14h15p14--------14~-------14-12~--|
|--------------------------------------------------------------15--15------15~----------|
|----------------------------------------------------------------17---------------------|
|---------------------------------------------------------------------------------------|

|-----------------------------------------------------------|
|-----------------------------------------------------------|
|----------------------14~----------------------------------|
|-14h15p14--------15~-------14~---14h15p14-------14--12~----|
|---------13-12-13-------------------------13-12------------|
|-----------------------------------------------------------|
Tap to rate this tab
 
# A B C D E F G H I J K L M N O P Q R S T U V W X Y Z